  0
SECTION
  2
HEADER
  9
$ACADVER
  1
AC1014
  9
$ACADMAINTVER
 70
     9
  9
$DWGCODEPAGE
  3
ANSI_1252
  9
$INSBASE
 10
0.0
 20
0.0
 30
0.0
  9
$EXTMIN
 10
0.0
 20
0.0
 30
0.0
  9
$EXTMAX
 10
11.0
 20
8.5
 30
0.0
  9
$LIMMIN
 10
0.0
 20
0.0
  9
$LIMMAX
 10
11.0
 20
8.5
  9
$ORTHOMODE
 70
     0
  9
$REGENMODE
 70
     1
  9
$FILLMODE
 70
     1
  9
$QTEXTMODE
 70
     0
  9
$MIRRTEXT
 70
     1
  9
$DRAGMODE
 70
     2
  9
$LTSCALE
 40
1.0
  9
$OSMODE
 70
    37
  9
$ATTMODE
 70
     1
  9
$TEXTSIZE
 40
0.1666666667
  9
$TRACEWID
 40
0.05
  9
$TEXTSTYLE
  7
STANDARD
  9
$CLAYER
  8
0
  9
$CELTYPE
  6
BYLAYER
  9
$CECOLOR
 62
   256
  9
$CELTSCALE
 40
1.0
  9
$DELOBJ
 70
     1
  9
$DISPSILH
 70
     0
  9
$DIMSCALE
 40
1.0
  9
$DIMASZ
 40
0.0984251969
  9
$DIMEXO
 40
0.0393700787
  9
$DIMDLI
 40
0.38
  9
$DIMRND
 40
0.0
  9
$DIMDLE
 40
0.0
  9
$DIMEXE
 40
0.0393700787
  9
$DIMTP
 40
0.0
  9
$DIMTM
 40
0.0
  9
$DIMTXT
 40
0.1666666667
  9
$DIMCEN
 40
0.09
  9
$DIMTSZ
 40
0.0
  9
$DIMTOL
 70
     0
  9
$DIMLIM
 70
     0
  9
$DIMTIH
 70
     1
  9
$DIMTOH
 70
     1
  9
$DIMSE1
 70
     0
  9
$DIMSE2
 70
     0
  9
$DIMTAD
 70
     1
  9
$DIMZIN
 70
     0
  9
$DIMBLK
  1

  9
$DIMASO
 70
     1
  9
$DIMSHO
 70
     1
  9
$DIMPOST
  1

  9
$DIMAPOST
  1

  9
$DIMALT
 70
     0
  9
$DIMALTD
 70
     2
  9
$DIMALTF
 40
25.4
  9
$DIMLFAC
 40
1.0
  9
$DIMTOFL
 70
     0
  9
$DIMTVP
 40
0.0
  9
$DIMTIX
 70
     0
  9
$DIMSOXD
 70
     0
  9
$DIMSAH
 70
     0
  9
$DIMBLK1
  1

  9
$DIMBLK2
  1

  9
$DIMSTYLE
  2
STANDARD
  9
$DIMCLRD
 70
     0
  9
$DIMCLRE
 70
     0
  9
$DIMCLRT
 70
     0
  9
$DIMTFAC
 40
1.0
  9
$DIMGAP
 40
0.06
  9
$DIMJUST
 70
     0
  9
$DIMSD1
 70
     0
  9
$DIMSD2
 70
     0
  9
$DIMTOLJ
 70
     1
  9
$DIMTZIN
 70
     0
  9
$DIMALTZ
 70
     0
  9
$DIMALTTZ
 70
     0
  9
$DIMFIT
 70
     3
  9
$DIMUPT
 70
     0
  9
$DIMUNIT
 70
     2
  9
$DIMDEC
 70
     3
  9
$DIMTDEC
 70
     2
  9
$DIMALTU
 70
     2
  9
$DIMALTTD
 70
     2
  9
$DIMTXSTY
  7
STANDARD
  9
$DIMAUNIT
 70
     0
  9
$LUNITS
 70
     2
  9
$LUPREC
 70
     3
  9
$SKETCHINC
 40
0.1
  9
$FILLETRAD
 40
0.5
  9
$AUNITS
 70
     0
  9
$AUPREC
 70
     2
  9
$MENU
  1
.
  9
$ELEVATION
 40
0.0
  9
$PELEVATION
 40
0.0
  9
$THICKNESS
 40
0.0
  9
$LIMCHECK
 70
     0
  9
$CHAMFERA
 40
0.0
  9
$CHAMFERB
 40
0.0
  9
$CHAMFERC
 40
0.0
  9
$CHAMFERD
 40
0.0
  9
$SKPOLY
 70
     0
  9
$TDCREATE
 40
2458099.241185208
  9
$TDUPDATE
 40
2458099.241191169
  9
$TDINDWG
 40
0.0000000116
  9
$TDUSRTIMER
 40
0.0000000116
  9
$USRTIMER
 70
     1
  9
$ANGBASE
 50
0.0
  9
$ANGDIR
 70
     0
  9
$PDMODE
 70
     0
  9
$PDSIZE
 40
-1.0
  9
$PLINEWID
 40
0.0
  9
$COORDS
 70
     1
  9
$SPLFRAME
 70
     0
  9
$SPLINETYPE
 70
     6
  9
$SPLINESEGS
 70
     8
  9
$ATTDIA
 70
     0
  9
$ATTREQ
 70
     1
  9
$HANDLING
 70
     1
  9
$HANDSEED
  5
218
  9
$SURFTAB1
 70
     6
  9
$SURFTAB2
 70
     6
  9
$SURFTYPE
 70
     6
  9
$SURFU
 70
     6
  9
$SURFV
 70
     6
  9
$UCSNAME
  2

  9
$UCSORG
 10
0.0
 20
0.0
 30
0.0
  9
$UCSXDIR
 10
1.0
 20
0.0
 30
0.0
  9
$UCSYDIR
 10
0.0
 20
1.0
 30
0.0
  9
$PUCSNAME
  2

  9
$PUCSORG
 10
0.0
 20
0.0
 30
0.0
  9
$PUCSXDIR
 10
1.0
 20
0.0
 30
0.0
  9
$PUCSYDIR
 10
0.0
 20
1.0
 30
0.0
  9
$USERI1
 70
     0
  9
$USERI2
 70
     0
  9
$USERI3
 70
     0
  9
$USERI4
 70
     0
  9
$USERI5
 70
     0
  9
$USERR1
 40
0.0
  9
$USERR2
 40
0.0
  9
$USERR3
 40
0.0
  9
$USERR4
 40
0.0
  9
$USERR5
 40
0.0
  9
$WORLDVIEW
 70
     1
  9
$SHADEDGE
 70
     3
  9
$SHADEDIF
 70
    70
  9
$TILEMODE
 70
     1
  9
$MAXACTVP
 70
    64
  9
$PINSBASE
 10
0.0
 20
0.0
 30
0.0
  9
$PLIMCHECK
 70
     0
  9
$PEXTMIN
 10
1.0000000000E+20
 20
1.0000000000E+20
 30
1.0000000000E+20
  9
$PEXTMAX
 10
-1.0000000000E+20
 20
-1.0000000000E+20
 30
-1.0000000000E+20
  9
$PLIMMIN
 10
0.0
 20
0.0
  9
$PLIMMAX
 10
12.0
 20
9.0
  9
$UNITMODE
 70
     0
  9
$VISRETAIN
 70
     1
  9
$PLINEGEN
 70
     0
  9
$PSLTSCALE
 70
     1
  9
$TREEDEPTH
 70
  3020
  9
$PICKSTYLE
 70
     1
  9
$CMLSTYLE
  2
STANDARD
  9
$CMLJUST
 70
     0
  9
$CMLSCALE
 40
1.0
  9
$PROXYGRAPHICS
 70
     1
  9
$MEASUREMENT
 70
     0
  0
ENDSEC
  0
SECTION
  2
CLASSES
  0
CLASS
  1
ACDBDICTIONARYWDFLT
  2
AcDbDictionaryWithDefault
  3
ObjectDBX Classes
 90
        0
280
     0
281
     0
  0
CLASS
  1
VISUALSTYLE
  2
AcDbVisualStyle
  3
ObjectDBX Classes
 90
     4095
280
     0
281
     0
  0
CLASS
  1
MATERIAL
  2
AcDbMaterial
  3
ObjectDBX Classes
 90
     1153
280
     0
281
     0
  0
CLASS
  1
SCALE
  2
AcDbScale
  3
ObjectDBX Classes
 90
     1153
280
     0
281
     0
  0
CLASS
  1
TABLESTYLE
  2
AcDbTableStyle
  3
ObjectDBX Classes
 90
     4095
280
     0
281
     0
  0
CLASS
  1
MLEADERSTYLE
  2
AcDbMLeaderStyle
  3
ACDB_MLEADERSTYLE_CLASS
 90
     4095
280
     0
281
     0
  0
CLASS
  1
SUN
  2
AcDbSun
  3
SCENEOE
 90
     1153
280
     0
281
     0
  0
CLASS
  1
XRECORD
  2
AcDbXrecord
  3
ObjectDBX Classes
 90
        0
280
     0
281
     0
  0
CLASS
  1
LWPOLYLINE
  2
AcDbPolyline
  3
ObjectDBX Classes
 90
        0
280
     0
281
     1
  0
CLASS
  1
HATCH
  2
AcDbHatch
  3
ObjectDBX Classes
 90
        0
280
     0
281
     1
  0
ENDSEC
  0
SECTION
  2
TABLES
  0
TABLE
  2
VPORT
  5
8
330
0
100
AcDbSymbolTable
 70
     1
  0
VPORT
  5
29
330
8
100
AcDbSymbolTableRecord
100
AcDbViewportTableRecord
  2
*ACTIVE
 70
     0
 10
0.0
 20
0.0
 11
1.0
 21
1.0
 12
5.5
 22
4.25
 13
0.0
 23
0.0
 14
0.5
 24
0.5
 15
0.5
 25
0.5
 16
0.0
 26
0.0
 36
1.0
 17
0.0
 27
0.0
 37
0.0
 40
8.5
 41
1.2941176471
 42
50.0
 43
0.0
 44
0.0
 50
0.0
 51
0.0
 71
     0
 72
  2000
 73
     1
 74
     3
 75
     0
 76
     0
 77
     0
 78
     0
  0
ENDTAB
  0
TABLE
  2
LTYPE
  5
5
330
0
100
AcDbSymbolTable
 70
     6
  0
LTYPE
  5
14
330
5
100
AcDbSymbolTableRecord
100
AcDbLinetypeTableRecord
  2
BYBLOCK
 70
     0
  3

 72
    65
 73
     0
 40
0.0
  0
LTYPE
  5
15
330
5
100
AcDbSymbolTableRecord
100
AcDbLinetypeTableRecord
  2
BYLAYER
 70
     0
  3

 72
    65
 73
     0
 40
0.0
  0
LTYPE
  5
16
330
5
100
AcDbSymbolTableRecord
100
AcDbLinetypeTableRecord
  2
CONTINUOUS
 70
     0
  3
Solid line
 72
    65
 73
     0
 40
0.0
  0
LTYPE
  5
6E
330
5
100
AcDbSymbolTableRecord
100
AcDbLinetypeTableRecord
  2
HIDDEN
 70
     0
  3
Hidden __ __ __ __ __ __ __ __ __ __ __ __ __ __
 72
    65
 73
     2
 40
0.075
 49
0.05
 74
     0
 49
-0.025
 74
     0
  0
LTYPE
  5
6F
330
5
100
AcDbSymbolTableRecord
100
AcDbLinetypeTableRecord
  2
PHANTOM
 70
     0
  3
Phantom ______  __  __  ______  __  __  ______
 72
    65
 73
     6
 40
0.5
 49
0.25
 74
     0
 49
-0.05
 74
     0
 49
0.05
 74
     0
 49
-0.05
 74
     0
 49
0.05
 74
     0
 49
-0.05
 74
     0
  0
LTYPE
  5
70
330
5
100
AcDbSymbolTableRecord
100
AcDbLinetypeTableRecord
  2
CENTER
 70
     0
  3
Center ____ _ ____ _ ____ _ ____ _ ____ _ ____
 72
    65
 73
     4
 40
0.4
 49
0.25
 74
     0
 49
-0.05
 74
     0
 49
0.05
 74
     0
 49
-0.05
 74
     0
  0
LTYPE
  5
71
330
5
100
AcDbSymbolTableRecord
100
AcDbLinetypeTableRecord
  2
CENTERX2
 70
     0
  3
Center (2x) ________  __  ________  __  _____
 72
    65
 73
     4
 40
0.8
 49
0.5
 74
     0
 49
-0.1
 74
     0
 49
0.1
 74
     0
 49
-0.1
 74
     0
  0
LTYPE
  5
72
330
5
100
AcDbSymbolTableRecord
100
AcDbLinetypeTableRecord
  2
DOT2
 70
     0
  3
Dot (.5x) ........................................
 72
    65
 73
     2
 40
0.025
 49
0.0
 74
     0
 49
-0.025
 74
     0
  0
ENDTAB
  0
TABLE
  2
LAYER
  5
2
330
0
100
AcDbSymbolTable
 70
     2
  0
LAYER
  5
10
330
2
100
AcDbSymbolTableRecord
100
AcDbLayerTableRecord
  2
0
 70
     0
 62
     7
  6
CONTINUOUS
  0
LAYER
  5
73
330
2
100
AcDbSymbolTableRecord
100
AcDbLayerTableRecord
  2
PART
 70
     0
 62
     7
  6
CONTINUOUS
  0
ENDTAB
  0
TABLE
  2
STYLE
  5
3
330
0
100
AcDbSymbolTable
 70
     1
  0
STYLE
  5
11
330
3
100
AcDbSymbolTableRecord
100
AcDbTextStyleTableRecord
  2
STANDARD
 70
     0
 40
0.0
 41
1.0
 50
0.0
 71
     0
 42
0.1666666667
  3
txt
  4

  0
ENDTAB
  0
TABLE
  2
VIEW
  5
6
330
0
100
AcDbSymbolTable
 70
     0
  0
ENDTAB
  0
TABLE
  2
UCS
  5
7
330
0
100
AcDbSymbolTable
 70
     0
  0
ENDTAB
  0
TABLE
  2
APPID
  5
9
330
0
100
AcDbSymbolTable
 70
     1
  0
APPID
  5
12
330
9
100
AcDbSymbolTableRecord
100
AcDbRegAppTableRecord
  2
ACAD
 70
     0
  0
ENDTAB
  0
TABLE
  2
DIMSTYLE
  5
A
330
0
100
AcDbSymbolTable
 70
     1
  0
DIMSTYLE
105
27
330
A
100
AcDbSymbolTableRecord
100
AcDbDimStyleTableRecord
  2
STANDARD
 70
     0
  3

  4

  5

  6

  7

 40
1.0
 41
0.18
 42
0.0625
 43
0.38
 44
0.18
 45
0.0
 46
0.0
 47
0.0
 48
0.0
140
0.18
141
0.09
142
0.0
143
25.4
144
1.0
145
0.0
146
1.0
147
0.09
 71
     0
 72
     0
 73
     1
 74
     1
 75
     0
 76
     0
 77
     0
 78
     0
170
     0
171
     2
172
     0
173
     0
174
     0
175
     0
176
     0
177
     0
178
     0
270
     2
271
     4
272
     4
273
     2
274
     2
340
11
275
     0
280
     0
281
     0
282
     0
283
     1
284
     0
285
     0
286
     0
287
     3
288
     0
  0
ENDTAB
  0
TABLE
  2
BLOCK_RECORD
  5
1
330
0
100
AcDbSymbolTable
 70
     1
  0
BLOCK_RECORD
  5
1F
330
1
100
AcDbSymbolTableRecord
100
AcDbBlockTableRecord
  2
*MODEL_SPACE
  0
BLOCK_RECORD
  5
1B
330
1
100
AcDbSymbolTableRecord
100
AcDbBlockTableRecord
  2
*PAPER_SPACE
  0
BLOCK_RECORD
  5
23
330
1
100
AcDbSymbolTableRecord
100
AcDbBlockTableRecord
  2
*PAPER_SPACE0
  0
ENDTAB
  0
ENDSEC
  0
SECTION
  2
BLOCKS
  0
BLOCK
  5
20
330
1F
100
AcDbEntity
  8
0
100
AcDbBlockBegin
  2
*MODEL_SPACE
 70
     0
 10
0.0
 20
0.0
 30
0.0
  3
*MODEL_SPACE
  1

  0
ENDBLK
  5
21
330
1F
100
AcDbEntity
  8
0
100
AcDbBlockEnd
  0
BLOCK
  5
1C
330
1B
100
AcDbEntity
 67
     1
  8
0
100
AcDbBlockBegin
  2
*PAPER_SPACE
 70
     0
 10
0.0
 20
0.0
 30
0.0
  3
*PAPER_SPACE
  1

  0
ENDBLK
  5
1D
330
1B
100
AcDbEntity
 67
     1
  8
0
100
AcDbBlockEnd
  0
BLOCK
  5
24
330
23
100
AcDbEntity
  8
0
100
AcDbBlockBegin
  2
*PAPER_SPACE0
 70
     0
 10
0.0
 20
0.0
 30
0.0
  3
*PAPER_SPACE0
  1

  0
ENDBLK
  5
25
330
23
100
AcDbEntity
  8
0
100
AcDbBlockEnd
  0
ENDSEC
  0
SECTION
  2
ENTITIES
  0
ARC
  5
74
330
1F
100
AcDbEntity
  8
0
  6
CONTINUOUS
 62
     7
100
AcDbCircle
 10
2.5553287925
 20
2.8364147687
 30
0.0
 40
0.0950000000000006
100
AcDbArc
 50
180.0
 51
270.0
  0
ARC
  5
75
330
1F
100
AcDbEntity
  8
0
  6
CONTINUOUS
 62
     7
100
AcDbCircle
 10
2.5603287925
 20
2.8364147687
 30
0.0
 40
0.0950000000000002
100
AcDbArc
 50
270.0
 51
0.0
  0
LINE
  5
76
330
1F
100
AcDbEntity
  8
0
  6
CONTINUOUS
 62
     7
100
AcDbLine
 10
2.6553288423
 20
2.8364148178
 30
0.0
 11
2.6553288423
 21
2.8664146979
 31
0.0
  0
LINE
  5
77
330
1F
100
AcDbEntity
  8
0
  6
CONTINUOUS
 62
     7
100
AcDbLine
 10
2.4603286682
 20
2.8664146979
 30
0.0
 11
2.4603286682
 21
2.8364148178
 31
0.0
  0
ARC
  5
78
330
1F
100
AcDbEntity
  8
0
  6
CONTINUOUS
 62
     7
100
AcDbCircle
 10
2.2643287925
 20
2.8381357931
 30
0.0
 40
0.0950000000000002
100
AcDbArc
 50
180.0
 51
270.0
  0
ARC
  5
79
330
1F
100
AcDbEntity
  8
0
  6
CONTINUOUS
 62
     7
100
AcDbCircle
 10
2.2693287925
 20
2.8381357931
 30
0.0
 40
0.0950000000000006
100
AcDbArc
 50
270.0
 51
0.0
  0
LINE
  5
7A
330
1F
100
AcDbEntity
  8
0
  6
CONTINUOUS
 62
     7
100
AcDbLine
 10
2.3643288172
 20
2.8381357846
 30
0.0
 11
2.3643288172
 21
2.8681358114
 31
0.0
  0
LINE
  5
7B
330
1F
100
AcDbEntity
  8
0
  6
CONTINUOUS
 62
     7
100
AcDbLine
 10
2.1693289366
 20
2.8681358114
 30
0.0
 11
2.1693289366
 21
2.8381357846
 31
0.0
  0
LINE
  5
7C
330
1F
100
AcDbEntity
  8
0
  6
CONTINUOUS
 62
     7
100
AcDbLine
 10
4.8339709344
 20
4.1511357909
 30
0.0
 11
5.3458287914
 21
4.1511357909
 31
0.0
  0
LINE
  5
7D
330
1F
100
AcDbEntity
  8
0
  6
CONTINUOUS
 62
     7
100
AcDbLine
 10
4.8198288011
 20
4.1652779242
 30
0.0
 11
4.8339709344
 21
4.1511357909
 31
0.0
  0
LINE
  5
7E
330
1F
100
AcDbEntity
  8
0
  6
CONTINUOUS
 62
     7
100
AcDbLine
 10
4.8198288011
 20
4.6771357903
 30
0.0
 11
4.8198288011
 21
4.1652779242
 31
0.0
  0
LINE
  5
7F
330
1F
100
AcDbEntity
  8
0
  6
CONTINUOUS
 62
     7
100
AcDbLine
 10
5.3458287914
 20
4.6771357903
 30
0.0
 11
4.8198288011
 21
4.6771357903
 31
0.0
  0
LINE
  5
80
330
1F
100
AcDbEntity
  8
0
  6
CONTINUOUS
 62
     7
100
AcDbLine
 10
5.3458287914
 20
4.1511357909
 30
0.0
 11
5.3458287914
 21
4.6771357903
 31
0.0
  0
LINE
  5
81
330
1F
100
AcDbEntity
  8
0
  6
CONTINUOUS
 62
     7
100
AcDbLine
 10
4.8098287983
 20
4.6871357748
 30
0.0
 11
4.8198288011
 21
4.6771357903
 31
0.0
  0
LINE
  5
82
330
1F
100
AcDbEntity
  8
0
  6
CONTINUOUS
 62
     7
100
AcDbLine
 10
4.8098287983
 20
4.6871357748
 30
0.0
 11
5.3558287942
 21
4.6871357748
 31
0.0
  0
LINE
  5
83
330
1F
100
AcDbEntity
  8
0
  6
CONTINUOUS
 62
     7
100
AcDbLine
 10
5.3458287914
 20
4.6771357903
 30
0.0
 11
5.3558287942
 21
4.6871357748
 31
0.0
  0
LINE
  5
84
330
1F
100
AcDbEntity
  8
0
  6
CONTINUOUS
 62
     7
100
AcDbLine
 10
4.8298287856
 20
4.1411357973
 30
0.0
 11
4.8098287983
 21
4.1611357937
 31
0.0
  0
LINE
  5
85
330
1F
100
AcDbEntity
  8
0
  6
CONTINUOUS
 62
     7
100
AcDbLine
 10
4.8098287983
 20
4.1611357937
 30
0.0
 11
4.8198288011
 21
4.1652779242
 31
0.0
  0
LINE
  5
86
330
1F
100
AcDbEntity
  8
0
  6
CONTINUOUS
 62
     7
100
AcDbLine
 10
4.8298287856
 20
4.1411357973
 30
0.0
 11
4.8339709344
 21
4.1511357909
 31
0.0
  0
LINE
  5
87
330
1F
100
AcDbEntity
  8
0
  6
CONTINUOUS
 62
     7
100
AcDbLine
 10
5.3558287942
 20
4.1411357973
 30
0.0
 11
4.8298287856
 21
4.1411357973
 31
0.0
  0
LINE
  5
88
330
1F
100
AcDbEntity
  8
0
  6
CONTINUOUS
 62
     7
100
AcDbLine
 10
5.3458287914
 20
4.1511357909
 30
0.0
 11
5.3558287942
 21
4.1411357973
 31
0.0
  0
LINE
  5
89
330
1F
100
AcDbEntity
  8
0
  6
CONTINUOUS
 62
     7
100
AcDbLine
 10
5.3558287942
 20
4.6871357748
 30
0.0
 11
5.3558287942
 21
4.1411357973
 31
0.0
  0
LINE
  5
8A
330
1F
100
AcDbEntity
  8
0
  6
CONTINUOUS
 62
     7
100
AcDbLine
 10
4.8098287983
 20
4.1611357937
 30
0.0
 11
4.8098287983
 21
4.6871357748
 31
0.0
  0
LINE
  5
8B
330
1F
100
AcDbEntity
  8
0
  6
CONTINUOUS
 62
     7
100
AcDbLine
 10
5.1363287934
 20
3.2976358231
 30
0.0
 11
5.1213287926
 21
3.2976358231
 31
0.0
  0
LINE
  5
8C
330
1F
100
AcDbEntity
  8
0
  6
CONTINUOUS
 62
     7
100
AcDbLine
 10
5.1163287924
 20
3.3026357787
 30
0.0
 11
5.1213287926
 21
3.2976358231
 31
0.0
  0
LINE
  5
8D
330
1F
100
AcDbEntity
  8
0
  6
CONTINUOUS
 62
     7
100
AcDbLine
 10
5.1163287924
 20
3.3026357787
 30
0.0
 11
5.1413287925
 21
3.3026357787
 31
0.0
  0
LINE
  5
8E
330
1F
100
AcDbEntity
  8
0
  6
CONTINUOUS
 62
     7
100
AcDbLine
 10
5.1363287934
 20
3.2976358231
 30
0.0
 11
5.1413287925
 21
3.3026357787
 31
0.0
  0
LINE
  5
8F
330
1F
100
AcDbEntity
  8
0
  6
CONTINUOUS
 62
     7
100
AcDbLine
 10
5.3363287878
 20
3.2976358231
 30
0.0
 11
5.3213287927
 21
3.2976358231
 31
0.0
  0
LINE
  5
90
330
1F
100
AcDbEntity
  8
0
  6
CONTINUOUS
 62
     7
100
AcDbLine
 10
5.3163288005
 20
3.3026357787
 30
0.0
 11
5.3213287927
 21
3.2976358231
 31
0.0
  0
LINE
  5
91
330
1F
100
AcDbEntity
  8
0
  6
CONTINUOUS
 62
     7
100
AcDbLine
 10
5.3163288005
 20
3.3026357787
 30
0.0
 11
5.3413287984
 21
3.3026357787
 31
0.0
  0
LINE
  5
92
330
1F
100
AcDbEntity
  8
0
  6
CONTINUOUS
 62
     7
100
AcDbLine
 10
5.3363287878
 20
3.2976358231
 30
0.0
 11
5.3413287984
 21
3.3026357787
 31
0.0
  0
LINE
  5
93
330
1F
100
AcDbEntity
  8
0
  6
CONTINUOUS
 62
     7
100
AcDbLine
 10
5.3213287927
 20
3.3831357821
 30
0.0
 11
5.3363287878
 21
3.3831357821
 31
0.0
  0
LINE
  5
94
330
1F
100
AcDbEntity
  8
0
  6
CONTINUOUS
 62
     7
100
AcDbLine
 10
5.3363287878
 20
3.3831357821
 30
0.0
 11
5.3413287984
 21
3.3781358265
 31
0.0
  0
LINE
  5
95
330
1F
100
AcDbEntity
  8
0
  6
CONTINUOUS
 62
     7
100
AcDbLine
 10
5.3413287984
 20
3.3781358265
 30
0.0
 11
5.3163288005
 21
3.3781358265
 31
0.0
  0
LINE
  5
96
330
1F
100
AcDbEntity
  8
0
  6
CONTINUOUS
 62
     7
100
AcDbLine
 10
5.3163288005
 20
3.3781358265
 30
0.0
 11
5.3213287927
 21
3.3831357821
 31
0.0
  0
LINE
  5
97
330
1F
100
AcDbEntity
  8
0
  6
CONTINUOUS
 62
     7
100
AcDbLine
 10
5.2363287963
 20
3.3981357955
 30
0.0
 11
5.2213287921
 21
3.3981357955
 31
0.0
  0
LINE
  5
98
330
1F
100
AcDbEntity
  8
0
  6
CONTINUOUS
 62
     7
100
AcDbLine
 10
5.2163287907
 20
3.4031358244
 30
0.0
 11
5.2213287921
 21
3.3981357955
 31
0.0
  0
LINE
  5
99
330
1F
100
AcDbEntity
  8
0
  6
CONTINUOUS
 62
     7
100
AcDbLine
 10
5.2163287907
 20
3.4031358244
 30
0.0
 11
5.2413287886
 21
3.4031358244
 31
0.0
  0
LINE
  5
9A
330
1F
100
AcDbEntity
  8
0
  6
CONTINUOUS
 62
     7
100
AcDbLine
 10
5.2363287963
 20
3.3981357955
 30
0.0
 11
5.2413287886
 21
3.4031358244
 31
0.0
  0
LINE
  5
9B
330
1F
100
AcDbEntity
  8
0
  6
CONTINUOUS
 62
     7
100
AcDbLine
 10
5.3213287927
 20
3.2826358097
 30
0.0
 11
5.3363287878
 21
3.2826358097
 31
0.0
  0
LINE
  5
9C
330
1F
100
AcDbEntity
  8
0
  6
CONTINUOUS
 62
     7
100
AcDbLine
 10
5.3363287878
 20
3.2826358097
 30
0.0
 11
5.3413287984
 21
3.2776357808
 31
0.0
  0
LINE
  5
9D
330
1F
100
AcDbEntity
  8
0
  6
CONTINUOUS
 62
     7
100
AcDbLine
 10
5.3413287984
 20
3.2776357808
 30
0.0
 11
5.3163288005
 21
3.2776357808
 31
0.0
  0
LINE
  5
9E
330
1F
100
AcDbEntity
  8
0
  6
CONTINUOUS
 62
     7
100
AcDbLine
 10
5.3163288005
 20
3.2776357808
 30
0.0
 11
5.3213287927
 21
3.2826358097
 31
0.0
  0
LINE
  5
9F
330
1F
100
AcDbEntity
  8
0
  6
CONTINUOUS
 62
     7
100
AcDbLine
 10
5.3363287878
 20
3.2826358097
 30
0.0
 11
5.3363287878
 21
3.2976358231
 31
0.0
  0
LINE
  5
A0
330
1F
100
AcDbEntity
  8
0
  6
CONTINUOUS
 62
     7
100
AcDbLine
 10
5.3413287984
 20
3.3026357787
 30
0.0
 11
5.3413287984
 21
3.2776357808
 31
0.0
  0
LINE
  5
A1
330
1F
100
AcDbEntity
  8
0
  6
CONTINUOUS
 62
     7
100
AcDbLine
 10
5.3163288005
 20
3.2776357808
 30
0.0
 11
5.3163288005
 21
3.3026357787
 31
0.0
  0
LINE
  5
A2
330
1F
100
AcDbEntity
  8
0
  6
CONTINUOUS
 62
     7
100
AcDbLine
 10
5.3213287927
 20
3.2976358231
 30
0.0
 11
5.3213287927
 21
3.2826358097
 31
0.0
  0
LINE
  5
A3
330
1F
100
AcDbEntity
  8
0
  6
CONTINUOUS
 62
     7
100
AcDbLine
 10
5.1213287926
 20
3.2826358097
 30
0.0
 11
5.1363287934
 21
3.2826358097
 31
0.0
  0
LINE
  5
A4
330
1F
100
AcDbEntity
  8
0
  6
CONTINUOUS
 62
     7
100
AcDbLine
 10
5.1363287934
 20
3.2826358097
 30
0.0
 11
5.1413287925
 21
3.2776357808
 31
0.0
  0
LINE
  5
A5
330
1F
100
AcDbEntity
  8
0
  6
CONTINUOUS
 62
     7
100
AcDbLine
 10
5.1413287925
 20
3.2776357808
 30
0.0
 11
5.1163287924
 21
3.2776357808
 31
0.0
  0
LINE
  5
A6
330
1F
100
AcDbEntity
  8
0
  6
CONTINUOUS
 62
     7
100
AcDbLine
 10
5.1163287924
 20
3.2776357808
 30
0.0
 11
5.1213287926
 21
3.2826358097
 31
0.0
  0
LINE
  5
A7
330
1F
100
AcDbEntity
  8
0
  6
CONTINUOUS
 62
     7
100
AcDbLine
 10
5.1363287934
 20
3.2826358097
 30
0.0
 11
5.1363287934
 21
3.2976358231
 31
0.0
  0
LINE
  5
A8
330
1F
100
AcDbEntity
  8
0
  6
CONTINUOUS
 62
     7
100
AcDbLine
 10
5.1413287925
 20
3.3026357787
 30
0.0
 11
5.1413287925
 21
3.2776357808
 31
0.0
  0
LINE
  5
A9
330
1F
100
AcDbEntity
  8
0
  6
CONTINUOUS
 62
     7
100
AcDbLine
 10
5.1163287924
 20
3.2776357808
 30
0.0
 11
5.1163287924
 21
3.3026357787
 31
0.0
  0
LINE
  5
AA
330
1F
100
AcDbEntity
  8
0
  6
CONTINUOUS
 62
     7
100
AcDbLine
 10
5.1213287926
 20
3.2976358231
 30
0.0
 11
5.1213287926
 21
3.2826358097
 31
0.0
  0
LINE
  5
AB
330
1F
100
AcDbEntity
  8
0
  6
CONTINUOUS
 62
     7
100
AcDbLine
 10
5.3363287878
 20
3.3831357821
 30
0.0
 11
5.3363287878
 21
3.3981357955
 31
0.0
  0
LINE
  5
AC
330
1F
100
AcDbEntity
  8
0
  6
CONTINUOUS
 62
     7
100
AcDbLine
 10
5.3363287878
 20
3.3981357955
 30
0.0
 11
5.3413287984
 21
3.4031358244
 31
0.0
  0
LINE
  5
AD
330
1F
100
AcDbEntity
  8
0
  6
CONTINUOUS
 62
     7
100
AcDbLine
 10
5.3413287984
 20
3.4031358244
 30
0.0
 11
5.3413287984
 21
3.3781358265
 31
0.0
  0
LINE
  5
AE
330
1F
100
AcDbEntity
  8
0
  6
CONTINUOUS
 62
     7
100
AcDbLine
 10
5.1363287934
 20
3.3831357821
 30
0.0
 11
5.1363287934
 21
3.3981357955
 31
0.0
  0
LINE
  5
AF
330
1F
100
AcDbEntity
  8
0
  6
CONTINUOUS
 62
     7
100
AcDbLine
 10
5.1363287934
 20
3.3981357955
 30
0.0
 11
5.1413287925
 21
3.4031358244
 31
0.0
  0
LINE
  5
B0
330
1F
100
AcDbEntity
  8
0
  6
CONTINUOUS
 62
     7
100
AcDbLine
 10
5.1413287925
 20
3.4031358244
 30
0.0
 11
5.1413287925
 21
3.3781358265
 31
0.0
  0
LINE
  5
B1
330
1F
100
AcDbEntity
  8
0
  6
CONTINUOUS
 62
     7
100
AcDbLine
 10
5.1363287934
 20
3.3831357821
 30
0.0
 11
5.1413287925
 21
3.3781358265
 31
0.0
  0
LINE
  5
B2
330
1F
100
AcDbEntity
  8
0
  6
CONTINUOUS
 62
     7
100
AcDbLine
 10
5.1163287924
 20
3.3781358265
 30
0.0
 11
5.1163287924
 21
3.4031358244
 31
0.0
  0
LINE
  5
B3
330
1F
100
AcDbEntity
  8
0
  6
CONTINUOUS
 62
     7
100
AcDbLine
 10
5.1163287924
 20
3.4031358244
 30
0.0
 11
5.1213287926
 21
3.3981357955
 31
0.0
  0
LINE
  5
B4
330
1F
100
AcDbEntity
  8
0
  6
CONTINUOUS
 62
     7
100
AcDbLine
 10
5.1213287926
 20
3.3981357955
 30
0.0
 11
5.1213287926
 21
3.3831357821
 31
0.0
  0
LINE
  5
B5
330
1F
100
AcDbEntity
  8
0
  6
CONTINUOUS
 62
     7
100
AcDbLine
 10
5.1163287924
 20
3.3781358265
 30
0.0
 11
5.1213287926
 21
3.3831357821
 31
0.0
  0
LINE
  5
B6
330
1F
100
AcDbEntity
  8
0
  6
CONTINUOUS
 62
     7
100
AcDbLine
 10
5.2363287963
 20
3.2976358231
 30
0.0
 11
5.2213287921
 21
3.2976358231
 31
0.0
  0
LINE
  5
B7
330
1F
100
AcDbEntity
  8
0
  6
CONTINUOUS
 62
     7
100
AcDbLine
 10
5.2363287963
 20
3.2826358097
 30
0.0
 11
5.2363287963
 21
3.2976358231
 31
0.0
  0
LINE
  5
B8
330
1F
100
AcDbEntity
  8
0
  6
CONTINUOUS
 62
     7
100
AcDbLine
 10
5.2213287921
 20
3.2826358097
 30
0.0
 11
5.2363287963
 21
3.2826358097
 31
0.0
  0
LINE
  5
B9
330
1F
100
AcDbEntity
  8
0
  6
CONTINUOUS
 62
     7
100
AcDbLine
 10
5.2213287921
 20
3.2976358231
 30
0.0
 11
5.2213287921
 21
3.2826358097
 31
0.0
  0
LINE
  5
BA
330
1F
100
AcDbEntity
  8
0
  6
CONTINUOUS
 62
     7
100
AcDbLine
 10
5.2213287921
 20
3.2976358231
 30
0.0
 11
5.2163287907
 21
3.3026357787
 31
0.0
  0
LINE
  5
BB
330
1F
100
AcDbEntity
  8
0
  6
CONTINUOUS
 62
     7
100
AcDbLine
 10
5.2163287907
 20
3.3026357787
 30
0.0
 11
5.2413287886
 21
3.3026357787
 31
0.0
  0
LINE
  5
BC
330
1F
100
AcDbEntity
  8
0
  6
CONTINUOUS
 62
     7
100
AcDbLine
 10
5.2413287886
 20
3.3026357787
 30
0.0
 11
5.2363287963
 21
3.2976358231
 31
0.0
  0
LINE
  5
BD
330
1F
100
AcDbEntity
  8
0
  6
CONTINUOUS
 62
     7
100
AcDbLine
 10
5.2213287921
 20
3.2826358097
 30
0.0
 11
5.2163287907
 21
3.2776357808
 31
0.0
  0
LINE
  5
BE
330
1F
100
AcDbEntity
  8
0
  6
CONTINUOUS
 62
     7
100
AcDbLine
 10
5.2163287907
 20
3.2776357808
 30
0.0
 11
5.2163287907
 21
3.3026357787
 31
0.0
  0
LINE
  5
BF
330
1F
100
AcDbEntity
  8
0
  6
CONTINUOUS
 62
     7
100
AcDbLine
 10
5.3163288005
 20
3.3781358265
 30
0.0
 11
5.3163288005
 21
3.4031358244
 31
0.0
  0
LINE
  5
C0
330
1F
100
AcDbEntity
  8
0
  6
CONTINUOUS
 62
     7
100
AcDbLine
 10
5.3163288005
 20
3.4031358244
 30
0.0
 11
5.3213287927
 21
3.3981357955
 31
0.0
  0
LINE
  5
C1
330
1F
100
AcDbEntity
  8
0
  6
CONTINUOUS
 62
     7
100
AcDbLine
 10
5.3213287927
 20
3.3981357955
 30
0.0
 11
5.3213287927
 21
3.3831357821
 31
0.0
  0
LINE
  5
C2
330
1F
100
AcDbEntity
  8
0
  6
CONTINUOUS
 62
     7
100
AcDbLine
 10
5.3363287878
 20
3.3981357955
 30
0.0
 11
5.3213287927
 21
3.3981357955
 31
0.0
  0
LINE
  5
C3
330
1F
100
AcDbEntity
  8
0
  6
CONTINUOUS
 62
     7
100
AcDbLine
 10
5.3163288005
 20
3.4031358244
 30
0.0
 11
5.3413287984
 21
3.4031358244
 31
0.0
  0
LINE
  5
C4
330
1F
100
AcDbEntity
  8
0
  6
CONTINUOUS
 62
     7
100
AcDbLine
 10
5.2213287921
 20
3.3831357821
 30
0.0
 11
5.2363287963
 21
3.3831357821
 31
0.0
  0
LINE
  5
C5
330
1F
100
AcDbEntity
  8
0
  6
CONTINUOUS
 62
     7
100
AcDbLine
 10
5.2363287963
 20
3.3831357821
 30
0.0
 11
5.2413287886
 21
3.3781358265
 31
0.0
  0
LINE
  5
C6
330
1F
100
AcDbEntity
  8
0
  6
CONTINUOUS
 62
     7
100
AcDbLine
 10
5.2413287886
 20
3.3781358265
 30
0.0
 11
5.2163287907
 21
3.3781358265
 31
0.0
  0
LINE
  5
C7
330
1F
100
AcDbEntity
  8
0
  6
CONTINUOUS
 62
     7
100
AcDbLine
 10
5.2163287907
 20
3.3781358265
 30
0.0
 11
5.2213287921
 21
3.3831357821
 31
0.0
  0
LINE
  5
C8
330
1F
100
AcDbEntity
  8
0
  6
CONTINUOUS
 62
     7
100
AcDbLine
 10
5.2213287921
 20
3.3981357955
 30
0.0
 11
5.2213287921
 21
3.3831357821
 31
0.0
  0
LINE
  5
C9
330
1F
100
AcDbEntity
  8
0
  6
CONTINUOUS
 62
     7
100
AcDbLine
 10
5.2363287963
 20
3.3831357821
 30
0.0
 11
5.2363287963
 21
3.3981357955
 31
0.0
  0
LINE
  5
CA
330
1F
100
AcDbEntity
  8
0
  6
CONTINUOUS
 62
     7
100
AcDbLine
 10
5.2163287907
 20
3.3781358265
 30
0.0
 11
5.2163287907
 21
3.4031358244
 31
0.0
  0
LINE
  5
CB
330
1F
100
AcDbEntity
  8
0
  6
CONTINUOUS
 62
     7
100
AcDbLine
 10
5.1363287934
 20
3.3981357955
 30
0.0
 11
5.1213287926
 21
3.3981357955
 31
0.0
  0
LINE
  5
CC
330
1F
100
AcDbEntity
  8
0
  6
CONTINUOUS
 62
     7
100
AcDbLine
 10
5.1163287924
 20
3.4031358244
 30
0.0
 11
5.1413287925
 21
3.4031358244
 31
0.0
  0
LINE
  5
CD
330
1F
100
AcDbEntity
  8
0
  6
CONTINUOUS
 62
     7
100
AcDbLine
 10
5.1213287926
 20
3.3831357821
 30
0.0
 11
5.1363287934
 21
3.3831357821
 31
0.0
  0
LINE
  5
CE
330
1F
100
AcDbEntity
  8
0
  6
CONTINUOUS
 62
     7
100
AcDbLine
 10
5.1413287925
 20
3.3781358265
 30
0.0
 11
5.1163287924
 21
3.3781358265
 31
0.0
  0
LINE
  5
CF
330
1F
100
AcDbEntity
  8
0
  6
CONTINUOUS
 62
     7
100
AcDbLine
 10
5.2413287886
 20
3.4031358244
 30
0.0
 11
5.2413287886
 21
3.3781358265
 31
0.0
  0
LINE
  5
D0
330
1F
100
AcDbEntity
  8
0
  6
CONTINUOUS
 62
     7
100
AcDbLine
 10
5.2413287886
 20
3.3026357787
 30
0.0
 11
5.2413287886
 21
3.2776357808
 31
0.0
  0
LINE
  5
D1
330
1F
100
AcDbEntity
  8
0
  6
CONTINUOUS
 62
     7
100
AcDbLine
 10
5.2413287886
 20
3.2776357808
 30
0.0
 11
5.2363287963
 21
3.2826358097
 31
0.0
  0
LINE
  5
D2
330
1F
100
AcDbEntity
  8
0
  6
CONTINUOUS
 62
     7
100
AcDbLine
 10
5.2413287886
 20
3.2776357808
 30
0.0
 11
5.2163287907
 21
3.2776357808
 31
0.0
  0
LINE
  5
D3
330
1F
100
AcDbEntity
  8
0
  6
CONTINUOUS
 62
     7
100
AcDbLine
 10
5.3663287962
 20
3.4371357716
 30
0.0
 11
5.0913287922
 21
3.4371357716
 31
0.0
  0
LINE
  5
D4
330
1F
100
AcDbEntity
  8
0
  6
CONTINUOUS
 62
     7
100
AcDbLine
 10
5.3663287962
 20
3.2441358145
 30
0.0
 11
5.3663287962
 21
3.4371357716
 31
0.0
  0
LINE
  5
D5
330
1F
100
AcDbEntity
  8
0
  6
CONTINUOUS
 62
     7
100
AcDbLine
 10
5.0913287922
 20
3.2441358145
 30
0.0
 11
5.3663287962
 21
3.2441358145
 31
0.0
  0
LINE
  5
D6
330
1F
100
AcDbEntity
  8
0
  6
CONTINUOUS
 62
     7
100
AcDbLine
 10
5.0913287922
 20
3.4371357716
 30
0.0
 11
5.0913287922
 21
3.2441358145
 31
0.0
  0
SPLINE
  5
D7
330
1F
100
AcDbEntity
  8
0
  6
CONTINUOUS
 62
     7
100
AcDbSpline
210
0.0
220
0.0
230
1.0
 70
     8
 71
     3
 72
    11
 73
     7
 74
     0
 42
0.000000001
 43
0.00000001
 40
0.0
 40
0.0
 40
0.0
 40
0.0
 40
0.2500000517067202
 40
0.4999999985967145
 40
0.7500001754835259
 40
1.0
 40
1.0
 40
1.0
 40
1.0
 10
2.252479762666665
 20
5.093391698383977
 30
0.0
 10
2.257480661215486
 20
5.119476702611473
 30
0.0
 10
2.267482456216416
 20
5.171646700129886
 30
0.0
 10
2.271273830076971
 20
5.251356277721993
 30
0.0
 10
2.267482465659555
 20
5.331065832883789
 30
0.0
 10
2.257480661314736
 20
5.383235829045992
 30
0.0
 10
2.252479762666665
 20
5.409320808743935
 30
0.0
  0
SPLINE
  5
D8
330
1F
100
AcDbEntity
  8
0
  6
CONTINUOUS
 62
     7
100
AcDbSpline
210
0.0
220
0.0
230
1.0
 70
     8
 71
     3
 72
    15
 73
    11
 74
     0
 42
0.000000001
 43
0.00000001
 40
0.0
 40
0.0
 40
0.0
 40
0.0
 40
0.1249999324645996
 40
0.2500004087350947
 40
0.3750006532242837
 40
0.4999991248219656
 40
0.6250034207708173
 40
0.7500025051096386
 40
0.8749995599071939
 40
0.9999999999999999
 40
0.9999999999999999
 40
0.9999999999999999
 40
0.9999999999999999
 10
2.252479762666665
 20
5.409320808743935
 30
0.0
 10
2.25225872782372
 20
5.411383690676671
 30
0.0
 10
2.251816657176227
 20
5.415509463516611
 30
0.0
 10
2.254220522509541
 20
5.421422421654785
 30
0.0
 10
2.258531334679406
 20
5.425981083548601
 30
0.0
 10
2.264301798605401
 20
5.42853848412018
 30
0.0
 10
2.270611602974241
 20
5.42869574143169
 30
0.0
 10
2.276458349121988
 20
5.426419645628845
 30
0.0
 10
2.281160649109397
 20
5.422103564461741
 30
0.0
 10
2.282526410878228
 20
5.418185460708337
 30
0.0
 10
2.283209301009749
 20
5.416226382303493
 30
0.0
  0
SPLINE
  5
D9
330
1F
100
AcDbEntity
  8
0
  6
CONTINUOUS
 62
     7
100
AcDbSpline
210
0.0
220
0.0
230
1.0
 70
     8
 71
     3
 72
    11
 73
     7
 74
     0
 42
0.000000001
 43
0.00000001
 40
0.0
 40
0.0
 40
0.0
 40
0.0
 40
0.2500001589578987
 40
0.5000001088371707
 40
0.7500000587164429
 40
1.0
 40
1.0
 40
1.0
 40
1.0
 10
2.283209301009749
 20
5.416226382303493
 30
0.0
 10
2.288428897631475
 20
5.389001048725211
 30
0.0
 10
2.298868086509704
 20
5.334550404337573
 30
0.0
 10
2.302825029701567
 20
5.251356253738082
 30
0.0
 10
2.298868091491184
 20
5.168162126239474
 30
0.0
 10
2.288428897777071
 20
5.113711507205733
 30
0.0
 10
2.283209301009749
 20
5.086486198156905
 30
0.0
  0
SPLINE
  5
DA
330
1F
100
AcDbEntity
  8
0
  6
CONTINUOUS
 62
     7
100
AcDbSpline
210
0.0
220
0.0
230
1.0
 70
     8
 71
     3
 72
    15
 73
    11
 74
     0
 42
0.000000001
 43
0.00000001
 40
0.0
 40
0.0
 40
0.0
 40
0.0
 40
0.1250003115280811
 40
0.2499982662785716
 40
0.3749972220540624
 40
0.5000013894342233
 40
0.6249997324692049
 40
0.7499998483938701
 40
0.8750001960996031
 40
1.0
 40
1.0
 40
1.0
 40
1.0
 10
2.283209301009749
 20
5.086486198156905
 30
0.0
 10
2.282526406102714
 20
5.084527124556659
 30
0.0
 10
2.281160629164061
 20
5.080609014292882
 30
0.0
 10
2.276458376993254
 20
5.076292855642932
 30
0.0
 10
2.270611599802805
 20
5.074016768938242
 30
0.0
 10
2.264301799455136
 20
5.074174022139085
 30
0.0
 10
2.258531334451801
 20
5.076731423811981
 30
0.0
 10
2.254220522570236
 20
5.081290085411079
 30
0.0
 10
2.251816657161054
 20
5.087203043626813
 30
0.0
 10
2.252258727818663
 20
5.09132881645641
 30
0.0
 10
2.252479762666665
 20
5.093391698383977
 30
0.0
  0
SPLINE
  5
DB
330
1F
100
AcDbEntity
  8
0
  6
CONTINUOUS
 62
     7
100
AcDbSpline
210
0.0
220
0.0
230
1.0
 70
     8
 71
     3
 72
    11
 73
     7
 74
     0
 42
0.000000001
 43
0.00000001
 40
0.0
 40
0.0
 40
0.0
 40
0.0
 40
0.2500001589578987
 40
0.5000001088371707
 40
0.7500000587164429
 40
1.0
 40
1.0
 40
1.0
 40
1.0
 10
2.283209301009749
 20
5.416226382303493
 30
0.0
 10
2.288428897631475
 20
5.389001048725211
 30
0.0
 10
2.298868086509704
 20
5.334550404337573
 30
0.0
 10
2.302825029701567
 20
5.251356253738082
 30
0.0
 10
2.298868091491184
 20
5.168162126239474
 30
0.0
 10
2.288428897777071
 20
5.113711507205733
 30
0.0
 10
2.283209301009749
 20
5.086486198156905
 30
0.0
  0
LINE
  5
DC
330
1F
100
AcDbEntity
  8
0
  6
CONTINUOUS
 62
     7
100
AcDbLine
 10
2.2188286581
 20
4.9718287294
 30
0.0
 11
2.4255218437
 21
4.9718287294
 31
0.0
  0
LINE
  5
DD
330
1F
100
AcDbEntity
  8
0
  6
CONTINUOUS
 62
     7
100
AcDbLine
 10
2.2188286581
 20
5.0184397376
 30
0.0
 11
2.2188286581
 21
4.9718287294
 31
0.0
  0
SPLINE
  5
DE
330
1F
100
AcDbEntity
  8
0
  6
CONTINUOUS
 62
     7
100
AcDbSpline
210
0.0
220
0.0
230
1.0
 70
     8
 71
     3
 72
    11
 73
     7
 74
     0
 42
0.000000001
 43
0.00000001
 40
0.0
 40
0.0
 40
0.0
 40
0.0
 40
0.250000055568851
 40
0.500000074911609
 40
0.7500000942543669
 40
1.0
 40
1.0
 40
1.0
 40
1.0
 10
2.218828658073764
 20
5.48427284289164
 30
0.0
 10
2.230037633364567
 20
5.446279393208545
 30
0.0
 10
2.252455582321943
 20
5.37029249934777
 30
0.0
 10
2.261070432114807
 20
5.251356253958234
 30
0.0
 10
2.252455589705542
 20
5.132420029962237
 30
0.0
 10
2.230037633586613
 20
5.056433162611991
 30
0.0
 10
2.218828658073764
 20
5.018439737568757
 30
0.0
  0
LINE
  5
DF
330
1F
100
AcDbEntity
  8
0
  6
CONTINUOUS
 62
     7
100
AcDbLine
 10
2.2188286581
 20
5.5151358464
 30
0.0
 11
2.2188286581
 21
5.4842728429
 31
0.0
  0
LINE
  5
E0
330
1F
100
AcDbEntity
  8
0
  6
CONTINUOUS
 62
     7
100
AcDbLine
 10
2.4255218437
 20
5.5151358464
 30
0.0
 11
2.2188286581
 21
5.5151358464
 31
0.0
  0
LINE
  5
E1
330
1F
100
AcDbEntity
  8
0
  6
CONTINUOUS
 62
     7
100
AcDbLine
 10
2.4255218437
 20
5.507261844
 30
0.0
 11
2.4255218437
 21
5.5151358464
 31
0.0
  0
LINE
  5
E2
330
1F
100
AcDbEntity
  8
0
  6
CONTINUOUS
 62
     7
100
AcDbLine
 10
2.4255218437
 20
5.507261844
 30
0.0
 11
2.5121360164
 21
5.507261844
 31
0.0
  0
LINE
  5
E3
330
1F
100
AcDbEntity
  8
0
  6
CONTINUOUS
 62
     7
100
AcDbLine
 10
2.5121360164
 20
5.5151358464
 30
0.0
 11
2.5121360164
 21
5.507261844
 31
0.0
  0
LINE
  5
E4
330
1F
100
AcDbEntity
  8
0
  6
CONTINUOUS
 62
     7
100
AcDbLine
 10
2.7739347521
 20
5.5151358464
 30
0.0
 11
2.5121360164
 21
5.5151358464
 31
0.0
  0
LINE
  5
E5
330
1F
100
AcDbEntity
  8
0
  6
CONTINUOUS
 62
     7
100
AcDbLine
 10
2.7739347521
 20
5.5151358464
 30
0.0
 11
2.7739347521
 21
5.4698602227
 31
0.0
  0
LINE
  5
E6
330
1F
100
AcDbEntity
  8
0
  6
CONTINUOUS
 62
     7
100
AcDbLine
 10
2.6400885916
 20
5.4698602227
 30
0.0
 11
2.7739347521
 21
5.4698602227
 31
0.0
  0
LINE
  5
E7
330
1F
100
AcDbEntity
  8
0
  6
CONTINUOUS
 62
     7
100
AcDbLine
 10
2.6400885916
 20
5.4541121446
 30
0.0
 11
2.6400885916
 21
5.4698602227
 31
0.0
  0
LINE
  5
E8
330
1F
100
AcDbEntity
  8
0
  6
CONTINUOUS
 62
     7
100
AcDbLine
 10
2.7267027644
 20
5.4541121446
 30
0.0
 11
2.6400885916
 21
5.4541121446
 31
0.0
  0
LINE
  5
E9
330
1F
100
AcDbEntity
  8
0
  6
CONTINUOUS
 62
     7
100
AcDbLine
 10
2.7267027644
 20
5.3852145139
 30
0.0
 11
2.7267027644
 21
5.4541121446
 31
0.0
  0
LINE
  5
EA
330
1F
100
AcDbEntity
  8
0
  6
CONTINUOUS
 62
     7
100
AcDbLine
 10
2.7680414602
 20
5.3852145139
 30
0.0
 11
2.7267027644
 21
5.3852145139
 31
0.0
  0
LINE
  5
EB
330
1F
100
AcDbEntity
  8
0
  6
CONTINUOUS
 62
     7
100
AcDbLine
 10
2.7680414602
 20
5.3261594228
 30
0.0
 11
2.7680414602
 21
5.3852145139
 31
0.0
  0
LINE
  5
EC
330
1F
100
AcDbEntity
  8
0
  6
CONTINUOUS
 62
     7
100
AcDbLine
 10
2.7385138413
 20
5.3261594228
 30
0.0
 11
2.7680414602
 21
5.3261594228
 31
0.0
  0
LINE
  5
ED
330
1F
100
AcDbEntity
  8
0
  6
CONTINUOUS
 62
     7
100
AcDbLine
 10
2.7385138413
 20
5.2277342464
 30
0.0
 11
2.7385138413
 21
5.3261594228
 31
0.0
  0
LINE
  5
EE
330
1F
100
AcDbEntity
  8
0
  6
CONTINUOUS
 62
     7
100
AcDbLine
 10
2.7680414602
 20
5.2277342464
 30
0.0
 11
2.7385138413
 21
5.2277342464
 31
0.0
  0
LINE
  5
EF
330
1F
100
AcDbEntity
  8
0
  6
CONTINUOUS
 62
     7
100
AcDbLine
 10
2.7680414602
 20
5.133245998
 30
0.0
 11
2.7680414602
 21
5.2277342464
 31
0.0
  0
LINE
  5
F0
330
1F
100
AcDbEntity
  8
0
  6
CONTINUOUS
 62
     7
100
AcDbLine
 10
2.7424507691
 20
5.133245998
 30
0.0
 11
2.7680414602
 21
5.133245998
 31
0.0
  0
LINE
  5
F1
330
1F
100
AcDbEntity
  8
0
  6
CONTINUOUS
 62
     7
100
AcDbLine
 10
2.7424507691
 20
5.0997814512
 30
0.0
 11
2.7424507691
 21
5.133245998
 31
0.0
  0
LINE
  5
F2
330
1F
100
AcDbEntity
  8
0
  6
CONTINUOUS
 62
     7
100
AcDbLine
 10
2.6400885916
 20
5.0997814512
 30
0.0
 11
2.7424507691
 21
5.0997814512
 31
0.0
  0
LINE
  5
F3
330
1F
100
AcDbEntity
  8
0
  6
CONTINUOUS
 62
     7
100
AcDbLine
 10
2.6400885916
 20
5.0840334465
 30
0.0
 11
2.6400885916
 21
5.0997814512
 31
0.0
  0
LINE
  5
F4
330
1F
100
AcDbEntity
  8
0
  6
CONTINUOUS
 62
     7
100
AcDbLine
 10
2.7266905912
 20
5.0840334465
 30
0.0
 11
2.6400885916
 21
5.0840334465
 31
0.0
  0
LINE
  5
F5
330
1F
100
AcDbEntity
  8
0
  6
CONTINUOUS
 62
     7
100
AcDbLine
 10
2.7266905912
 20
5.0387578229
 30
0.0
 11
2.7266905912
 21
5.0840334465
 31
0.0
  0
LINE
  5
F6
330
1F
100
AcDbEntity
  8
0
  6
CONTINUOUS
 62
     7
100
AcDbLine
 10
2.7266905912
 20
5.0387578229
 30
0.0
 11
2.7542496728
 21
5.0387578229
 31
0.0
  0
LINE
  5
F7
330
1F
100
AcDbEntity
  8
0
  6
CONTINUOUS
 62
     7
100
AcDbLine
 10
2.7542496728
 20
5.0387578229
 30
0.0
 11
2.7542496728
 21
5.0151358157
 31
0.0
  0
LINE
  5
F8
330
1F
100
AcDbEntity
  8
0
  6
CONTINUOUS
 62
     7
100
AcDbLine
 10
2.7542496728
 20
5.0151358157
 30
0.0
 11
2.7581866007
 21
5.0111988145
 31
0.0
  0
LINE
  5
F9
330
1F
100
AcDbEntity
  8
0
  6
CONTINUOUS
 62
     7
100
AcDbLine
 10
2.7581866007
 20
5.0111988145
 30
0.0
 11
2.7739346054
 21
5.0111988145
 31
0.0
  0
LINE
  5
FA
330
1F
100
AcDbEntity
  8
0
  6
CONTINUOUS
 62
     7
100
AcDbLine
 10
2.7739346054
 20
5.0111988145
 30
0.0
 11
2.7739346054
 21
4.9718287294
 31
0.0
  0
LINE
  5
FB
330
1F
100
AcDbEntity
  8
0
  6
CONTINUOUS
 62
     7
100
AcDbLine
 10
2.5081989419
 20
4.9718287294
 30
0.0
 11
2.7739346054
 21
4.9718287294
 31
0.0
  0
LINE
  5
FC
330
1F
100
AcDbEntity
  8
0
  6
CONTINUOUS
 62
     7
100
AcDbLine
 10
2.5081989419
 20
4.9797027317
 30
0.0
 11
2.5081989419
 21
4.9718287294
 31
0.0
  0
LINE
  5
FD
330
1F
100
AcDbEntity
  8
0
  6
CONTINUOUS
 62
     7
100
AcDbLine
 10
2.5081989419
 20
4.9797027317
 30
0.0
 11
2.4255218437
 21
4.9797027317
 31
0.0
  0
LINE
  5
FE
330
1F
100
AcDbEntity
  8
0
  6
CONTINUOUS
 62
     7
100
AcDbLine
 10
2.4255218437
 20
4.9718287294
 30
0.0
 11
2.4255218437
 21
4.9797027317
 31
0.0
  0
LINE
  5
FF
330
1F
100
AcDbEntity
  8
0
  6
CONTINUOUS
 62
     7
100
AcDbLine
 10
2.3545533035
 20
5.1205016185
 30
0.0
 11
2.3453412766
 21
5.0981779631
 31
0.0
  0
SPLINE
  5
100
330
1F
100
AcDbEntity
  8
0
  6
CONTINUOUS
 62
     7
100
AcDbSpline
210
0.0
220
0.0
230
1.0
 70
     8
 71
     3
 72
    11
 73
     7
 74
     0
 42
0.000000001
 43
0.00000001
 40
0.0
 40
0.0
 40
0.0
 40
0.0
 40
0.250004257934144
 40
0.5000144914238457
 40
0.7500123155499087
 40
0.9999999999999999
 40
0.9999999999999999
 40
0.9999999999999999
 40
0.9999999999999999
 10
2.361831992753705
 20
5.125371995611521
 30
0.0
 10
2.36105747666574
 20
5.125305888310323
 30
0.0
 10
2.359508425977472
 20
5.125173672127842
 30
0.0
 10
2.357396569722662
 20
5.124126335693314
 30
0.0
 10
2.355622747357243
 20
5.122573814149337
 30
0.0
 10
2.354909779969043
 20
5.121192341071849
 30
0.0
 10
2.354553303504411
 20
5.1205016185412
 30
0.0
  0
LINE
  5
101
330
1F
100
AcDbEntity
  8
0
  6
CONTINUOUS
 62
     7
100
AcDbLine
 10
2.372311205
 20
5.1253719956
 30
0.0
 11
2.3618319928
 21
5.1253719956
 31
0.0
  0
SPLINE
  5
102
330
1F
100
AcDbEntity
  8
0
  6
CONTINUOUS
 62
     7
100
AcDbSpline
210
0.0
220
0.0
230
1.0
 70
     8
 71
     3
 72
    11
 73
     7
 74
     0
 42
0.000000001
 43
0.00000001
 40
0.0
 40
0.0
 40
0.0
 40
0.0
 40
0.249999094016818
 40
0.5000038652486871
 40
0.7500102829962236
 40
1.0
 40
1.0
 40
1.0
 40
1.0
 10
2.380185060737497
 20
5.133245997983707
 30
0.0
 10
2.380066740021791
 20
5.132214219863965
 30
0.0
 10
2.37983009590344
 20
5.130150640193892
 30
0.0
 10
2.378009219968321
 20
5.127547881320917
 30
0.0
 10
2.375406438678627
 20
5.125727195193162
 30
0.0
 10
2.373342926604763
 20
5.12549039283553
 30
0.0
 10
2.372311205030284
 20
5.125371995611521
 30
0.0
  0
LINE
  5
103
330
1F
100
AcDbEntity
  8
0
  6
CONTINUOUS
 62
     7
100
AcDbLine
 10
2.3801850607
 20
5.3694665091
 30
0.0
 11
2.3801850607
 21
5.133245998
 31
0.0
  0
SPLINE
  5
104
330
1F
100
AcDbEntity
  8
0
  6
CONTINUOUS
 62
     7
100
AcDbSpline
210
0.0
220
0.0
230
1.0
 70
     8
 71
     3
 72
    11
 73
     7
 74
     0
 42
0.000000001
 43
0.00000001
 40
0.0
 40
0.0
 40
0.0
 40
0.0
 40
0.2499880150585172
 40
0.4999972102077133
 40
0.7500014437052768
 40
1.0
 40
1.0
 40
1.0
 40
1.0
 10
2.372311205030284
 20
5.37734051151639
 30
0.0
 10
2.3733429312612
 20
5.377222149639403
 30
0.0
 10
2.375406471135441
 20
5.376985415857286
 30
0.0
 10
2.378009197745182
 20
5.375164612676102
 30
0.0
 10
2.379830099446971
 20
5.372561873092665
 30
0.0
 10
2.380066741202958
 20
5.370498289316813
 30
0.0
 10
2.380185060737497
 20
5.369466509144204
 30
0.0
  0
LINE
  5
105
330
1F
100
AcDbEntity
  8
0
  6
CONTINUOUS
 62
     7
100
AcDbLine
 10
2.3618319928
 20
5.3773405115
 30
0.0
 11
2.372311205
 21
5.3773405115
 31
0.0
  0
SPLINE
  5
106
330
1F
100
AcDbEntity
  8
0
  6
CONTINUOUS
 62
     7
100
AcDbSpline
210
0.0
220
0.0
230
1.0
 70
     8
 71
     3
 72
    11
 73
     7
 74
     0
 42
0.000000001
 43
0.00000001
 40
0.0
 40
0.0
 40
0.0
 40
0.0
 40
0.2499927863717264
 40
0.4999889098999709
 40
0.7499974427074401
 40
1.0
 40
1.0
 40
1.0
 40
1.0
 10
2.354553303504411
 20
5.382210961919198
 30
0.0
 10
2.354909775526532
 20
5.381520212070477
 30
0.0
 10
2.355622724329322
 20
5.380138703152208
 30
0.0
 10
2.357396571573249
 20
5.378586172476743
 30
0.0
 10
2.359508425514828
 20
5.377538834739534
 30
0.0
 10
2.361057476511528
 20
5.377406618730745
 30
0.0
 10
2.361831992753705
 20
5.37734051151639
 30
0.0
  0
LINE
  5
107
330
1F
100
AcDbEntity
  8
0
  6
CONTINUOUS
 62
     7
100
AcDbLine
 10
2.3453412766
 20
5.404534544
 30
0.0
 11
2.3545533035
 21
5.3822109619
 31
0.0
  0
SPLINE
  5
108
330
1F
100
AcDbEntity
  8
0
  6
CONTINUOUS
 62
     7
100
AcDbSpline
210
0.0
220
0.0
230
1.0
 70
     8
 71
     3
 72
    15
 73
    11
 74
     0
 42
0.000000001
 43
0.00000001
 40
0.0
 40
0.0
 40
0.0
 40
0.0
 40
0.1225421163639846
 40
0.2460745985374895
 40
0.3715643010231993
 40
0.4972402507528155
 40
0.6225202824795317
 40
0.7480876464926816
 40
0.8742802200194677
 40
1.0
 40
1.0
 40
1.0
 40
1.0
 10
2.307766590655177
 20
5.393341806668063
 30
0.0
 10
2.307576149448928
 20
5.395706719483043
 30
0.0
 10
2.307193727921023
 20
5.400455657960599
 30
0.0
 10
2.309875265540496
 20
5.40731359447946
 30
0.0
 10
2.314734203337449
 20
5.41276046713809
 30
0.0
 10
2.321216243676372
 20
5.416292343500873
 30
0.0
 10
2.32856500977205
 20
5.417109249433369
 30
0.0
 10
2.335693356973374
 20
5.415265352736172
 30
0.0
 10
2.341776839370961
 20
5.410914665955407
 30
0.0
 10
2.344143660562428
 20
5.40665399033581
 30
0.0
 10
2.345324850112292
 20
5.404527650781571
 30
0.0
  0
SPLINE
  5
109
330
1F
100
AcDbEntity
  8
0
  6
CONTINUOUS
 62
     7
100
AcDbSpline
210
0.0
220
0.0
230
1.0
 70
     8
 71
     3
 72
     9
 73
     5
 74
     0
 42
0.000000001
 43
0.00000001
 40
0.0
 40
0.0
 40
0.0
 40
0.0
 40
0.5
 40
1.0
 40
1.0
 40
1.0
 40
1.0
 10
2.30780619019772
 20
5.109365493853328
 30
0.0
 10
2.31449865955241
 20
5.156695747090204
 30
0.0
 10
2.327883598261789
 20
5.251356253563956
 30
0.0
 10
2.31449865955241
 20
5.346016760037707
 30
0.0
 10
2.30780619019772
 20
5.393347013274583
 30
0.0
  0
SPLINE
  5
10A
330
1F
100
AcDbEntity
  8
0
  6
CONTINUOUS
 62
     7
100
AcDbSpline
210
0.0
220
0.0
230
1.0
 70
     8
 71
     3
 72
    15
 73
    11
 74
     0
 42
0.000000001
 43
0.00000001
 40
0.0
 40
0.0
 40
0.0
 40
0.0
 40
0.1257203924131555
 40
0.2519242008367321
 40
0.3775153152730897
 40
0.5027641324873363
 40
0.6283492420621675
 40
0.7538818282345277
 40
0.877534167567763
 40
1.0
 40
1.0
 40
1.0
 40
1.0
 10
2.345324850112292
 20
5.09818485634634
 30
0.0
 10
2.344143961807257
 20
5.096058713045869
 30
0.0
 10
2.341777644483447
 20
5.091798251067072
 30
0.0
 10
2.335694272775425
 20
5.087447837612068
 30
0.0
 10
2.328566905026112
 20
5.085604376752551
 30
0.0
 10
2.32122133787436
 20
5.086418419428133
 30
0.0
 10
2.314739487687818
 20
5.089950461140464
 30
0.0
 10
2.309889439716149
 20
5.095395862072075
 30
0.0
 10
2.307160252612672
 20
5.102248126866393
 30
0.0
 10
2.307612920398161
 20
5.106997345594193
 30
0.0
 10
2.307838163161699
 20
5.109360507244268
 30
0.0
  0
LINE
  5
10B
330
1F
100
AcDbEntity
  8
0
  6
CONTINUOUS
 62
     7
100
AcDbLine
 10
2.2188286581
 20
5.4842728429
 30
0.0
 11
2.2188286581
 21
5.4521436807
 31
0.0
  0
LINE
  5
10C
330
1F
100
AcDbEntity
  8
0
  6
CONTINUOUS
 62
     7
100
AcDbLine
 10
2.7739347521
 20
4.9797027317
 30
0.0
 11
2.7739347521
 21
5.0111988145
 31
0.0
  0
LINE
  5
10D
330
1F
100
AcDbEntity
  8
0
  6
CONTINUOUS
 62
     7
100
AcDbLine
 10
2.7739347521
 20
4.9718287294
 30
0.0
 11
2.7739347521
 21
4.9797027317
 31
0.0
  0
LINE
  5
10E
330
1F
100
AcDbEntity
  8
0
  6
CONTINUOUS
 62
     7
100
AcDbLine
 10
2.7739347521
 20
5.4698602227
 30
0.0
 11
2.7739347521
 21
5.4580491458
 31
0.0
  0
LINE
  5
10F
330
1F
100
AcDbEntity
  8
0
  6
CONTINUOUS
 62
     7
100
AcDbLine
 10
2.2188286581
 20
5.4521436807
 30
0.0
 11
2.2306398816
 21
5.4403326772
 31
0.0
  0
LINE
  5
110
330
1F
100
AcDbEntity
  8
0
  6
CONTINUOUS
 62
     7
100
AcDbLine
 10
2.6577624541
 20
5.4580491458
 30
0.0
 11
2.7739347521
 21
5.4580491458
 31
0.0
  0
LINE
  5
111
330
1F
100
AcDbEntity
  8
0
  6
CONTINUOUS
 62
     7
100
AcDbLine
 10
2.6577624541
 20
5.09584445
 30
0.0
 11
2.6577624541
 21
5.0997814512
 31
0.0
  0
LINE
  5
112
330
1F
100
AcDbEntity
  8
0
  6
CONTINUOUS
 62
     7
100
AcDbLine
 10
2.6577624541
 20
5.4541121446
 30
0.0
 11
2.6577624541
 21
5.4580491458
 31
0.0
  0
LINE
  5
113
330
1F
100
AcDbEntity
  8
0
  6
CONTINUOUS
 62
     7
100
AcDbLine
 10
2.7739347521
 20
5.09584445
 30
0.0
 11
2.6577624541
 21
5.09584445
 31
0.0
  0
LINE
  5
114
330
1F
100
AcDbEntity
  8
0
  6
CONTINUOUS
 62
     7
100
AcDbLine
 10
2.7739347521
 20
5.09584445
 30
0.0
 11
2.7739347521
 21
5.0840334465
 31
0.0
  0
LINE
  5
115
330
1F
100
AcDbEntity
  8
0
  6
CONTINUOUS
 62
     7
100
AcDbLine
 10
2.7266905912
 20
5.0840334465
 30
0.0
 11
2.7739347521
 21
5.0840334465
 31
0.0
  0
LINE
  5
116
330
1F
100
AcDbEntity
  8
0
  6
CONTINUOUS
 62
     7
100
AcDbLine
 10
2.6577624541
 20
5.4580491458
 30
0.0
 11
2.6577621608
 21
5.4580491458
 31
0.0
  0
LINE
  5
117
330
1F
100
AcDbEntity
  8
0
  6
CONTINUOUS
 62
     7
100
AcDbLine
 10
2.6577621608
 20
5.09584445
 30
0.0
 11
2.6577621608
 21
5.0997814512
 31
0.0
  0
LINE
  5
118
330
1F
100
AcDbEntity
  8
0
  6
CONTINUOUS
 62
     7
100
AcDbLine
 10
2.6577621608
 20
5.4541121446
 30
0.0
 11
2.6577621608
 21
5.4580491458
 31
0.0
  0
LINE
  5
119
330
1F
100
AcDbEntity
  8
0
  6
CONTINUOUS
 62
     7
100
AcDbLine
 10
2.7739347521
 20
5.09584445
 30
0.0
 11
2.7739347521
 21
5.1273405329
 31
0.0
  0
LINE
  5
11A
330
1F
100
AcDbEntity
  8
0
  6
CONTINUOUS
 62
     7
100
AcDbLine
 10
2.6621478835
 20
5.4580491458
 30
0.0
 11
2.6621478835
 21
5.4541121446
 31
0.0
  0
LINE
  5
11B
330
1F
100
AcDbEntity
  8
0
  6
CONTINUOUS
 62
     7
100
AcDbLine
 10
2.6621483235
 20
5.0997814512
 30
0.0
 11
2.6621483235
 21
5.09584445
 31
0.0
  0
LINE
  5
11C
330
1F
100
AcDbEntity
  8
0
  6
CONTINUOUS
 62
     7
100
AcDbLine
 10
2.7542496728
 20
5.4580491458
 30
0.0
 11
2.7542496728
 21
5.4265531363
 31
0.0
  0
LINE
  5
11D
330
1F
100
AcDbEntity
  8
0
  6
CONTINUOUS
 62
     7
100
AcDbLine
 10
2.7542496728
 20
5.4265531363
 30
0.0
 11
2.7267027644
 21
5.4265531363
 31
0.0
  0
LINE
  5
11E
330
1F
100
AcDbEntity
  8
0
  6
CONTINUOUS
 62
     7
100
AcDbLine
 10
2.7739347521
 20
5.3202538843
 30
0.0
 11
2.7385138413
 21
5.3202538843
 31
0.0
  0
LINE
  5
11F
330
1F
100
AcDbEntity
  8
0
  6
CONTINUOUS
 62
     7
100
AcDbLine
 10
2.7739347521
 20
5.2336397116
 30
0.0
 11
2.7739347521
 21
5.3202538843
 31
0.0
  0
LINE
  5
120
330
1F
100
AcDbEntity
  8
0
  6
CONTINUOUS
 62
     7
100
AcDbLine
 10
2.7385138413
 20
5.2336397116
 30
0.0
 11
2.7739347521
 21
5.2336397116
 31
0.0
  0
LINE
  5
121
330
1F
100
AcDbEntity
  8
0
  6
CONTINUOUS
 62
     7
100
AcDbLine
 10
2.7739347521
 20
5.1273405329
 30
0.0
 11
2.7424507691
 21
5.1273405329
 31
0.0
  0
LINE
  5
122
330
1F
100
AcDbEntity
  8
0
  6
CONTINUOUS
 62
     7
100
AcDbLine
 10
2.7621235286
 20
5.133245998
 30
0.0
 11
2.7621235286
 21
5.1273405329
 31
0.0
  0
LINE
  5
123
330
1F
100
AcDbEntity
  8
0
  6
CONTINUOUS
 62
     7
100
AcDbLine
 10
2.7621236752
 20
5.2336397116
 30
0.0
 11
2.7621236752
 21
5.2277342464
 31
0.0
  0
LINE
  5
124
330
1F
100
AcDbEntity
  8
0
  6
CONTINUOUS
 62
     7
100
AcDbLine
 10
2.7621236752
 20
5.0466318252
 30
0.0
 11
2.7385016681
 21
5.0466318252
 31
0.0
  0
SPLINE
  5
125
330
1F
100
AcDbEntity
  8
0
  6
CONTINUOUS
 62
     7
100
AcDbSpline
210
0.0
220
0.0
230
1.0
 70
    24
 71
     3
 72
     9
 73
     5
 74
     0
 42
0.000000001
 43
0.00000001
 40
0.0
 40
0.0
 40
0.0
 40
0.0
 40
0.500001533641135
 40
1.0
 40
1.0
 40
1.0
 40
1.0
 10
2.73850166810014
 20
5.046631825224688
 30
0.0
 10
2.73850166810014
 20
5.047734542778405
 30
0.0
 10
2.73850166810014
 20
5.049939971121169
 30
0.0
 10
2.73850166810014
 20
5.051791148887279
 30
0.0
 10
2.73850166810014
 20
5.052716734931292
 30
0.0
  0
LINE
  5
126
330
1F
100
AcDbEntity
  8
0
  6
CONTINUOUS
 62
     7
100
AcDbLine
 10
2.7621236752
 20
5.0527167349
 30
0.0
 11
2.7385016681
 21
5.0527167349
 31
0.0
  0
SPLINE
  5
127
330
1F
100
AcDbEntity
  8
0
  6
CONTINUOUS
 62
     7
100
AcDbSpline
210
0.0
220
0.0
230
1.0
 70
    24
 71
     3
 72
     9
 73
     5
 74
     0
 42
0.000000001
 43
0.00000001
 40
0.0
 40
0.0
 40
0.0
 40
0.0
 40
0.4999984663588651
 40
1.0
 40
1.0
 40
1.0
 40
1.0
 10
2.762123675216698
 20
5.052716734931292
 30
0.0
 10
2.762123675216698
 20
5.051791148887279
 30
0.0
 10
2.762123675216698
 20
5.049939971121169
 30
0.0
 10
2.762123675216698
 20
5.047734542778405
 30
0.0
 10
2.762123675216698
 20
5.046631825224688
 30
0.0
  0
LINE
  5
128
330
1F
100
AcDbEntity
  8
0
  6
CONTINUOUS
 62
     7
100
AcDbLine
 10
2.7621236752
 20
5.0466318252
 30
0.0
 11
2.7621236752
 21
5.0387578229
 31
0.0
  0
LINE
  5
129
330
1F
100
AcDbEntity
  8
0
  6
CONTINUOUS
 62
     7
100
AcDbLine
 10
2.7621236752
 20
5.0387578229
 30
0.0
 11
2.7739347521
 21
5.0387578229
 31
0.0
  0
LINE
  5
12A
330
1F
100
AcDbEntity
  8
0
  6
CONTINUOUS
 62
     7
100
AcDbLine
 10
2.7739347521
 20
5.0387578229
 30
0.0
 11
2.7739347521
 21
5.0230098181
 31
0.0
  0
LINE
  5
12B
330
1F
100
AcDbEntity
  8
0
  6
CONTINUOUS
 62
     7
100
AcDbLine
 10
2.7739347521
 20
5.0230098181
 30
0.0
 11
2.7621236752
 21
5.0230098181
 31
0.0
  0
LINE
  5
12C
330
1F
100
AcDbEntity
  8
0
  6
CONTINUOUS
 62
     7
100
AcDbLine
 10
2.7621236752
 20
5.0230098181
 30
0.0
 11
2.7621236752
 21
5.0111988145
 31
0.0
  0
LINE
  5
12D
330
1F
100
AcDbEntity
  8
0
  6
CONTINUOUS
 62
     7
100
AcDbLine
 10
2.7385016681
 20
5.0387578229
 30
0.0
 11
2.7385016681
 21
5.0466318252
 31
0.0
  0
LINE
  5
12E
330
1F
100
AcDbEntity
  8
0
  6
CONTINUOUS
 62
     7
100
AcDbLine
 10
2.7621236752
 20
5.0579773875
 30
0.0
 11
2.7621236752
 21
5.0527167349
 31
0.0
  0
SPLINE
  5
12F
330
1F
100
AcDbEntity
  8
0
  6
CONTINUOUS
 62
     7
100
AcDbSpline
210
0.0
220
0.0
230
1.0
 70
    24
 71
     3
 72
     9
 73
     5
 74
     0
 42
0.000000001
 43
0.00000001
 40
0.0
 40
0.0
 40
0.0
 40
0.0
 40
0.5000097909030431
 40
1.0
 40
1.0
 40
1.0
 40
1.0
 10
2.762123675216698
 20
5.060411366042257
 30
0.0
 10
2.762123675216698
 20
5.059970268536111
 30
0.0
 10
2.762123675216698
 20
5.059088090798452
 30
0.0
 10
2.762123675216698
 20
5.058347617094959
 30
0.0
 10
2.762123675216698
 20
5.057977387493119
 30
0.0
  0
LINE
  5
130
330
1F
100
AcDbEntity
  8
0
  6
CONTINUOUS
 62
     7
100
AcDbLine
 10
2.7621236752
 20
5.0722223696
 30
0.0
 11
2.7621236752
 21
5.060411366
 31
0.0
  0
LINE
  5
131
330
1F
100
AcDbEntity
  8
0
  6
CONTINUOUS
 62
     7
100
AcDbLine
 10
2.7385016681
 20
5.060411366
 30
0.0
 11
2.7385016681
 21
5.0722223696
 31
0.0
  0
SPLINE
  5
132
330
1F
100
AcDbEntity
  8
0
  6
CONTINUOUS
 62
     7
100
AcDbSpline
210
0.0
220
0.0
230
1.0
 70
    24
 71
     3
 72
     9
 73
     5
 74
     0
 42
0.000000001
 43
0.00000001
 40
0.0
 40
0.0
 40
0.0
 40
0.0
 40
0.4999902090969569
 40
1.0
 40
1.0
 40
1.0
 40
1.0
 10
2.73850166810014
 20
5.057977387493119
 30
0.0
 10
2.73850166810014
 20
5.058347617094959
 30
0.0
 10
2.73850166810014
 20
5.059088090798452
 30
0.0
 10
2.73850166810014
 20
5.059970268536111
 30
0.0
 10
2.73850166810014
 20
5.060411366042257
 30
0.0
  0
LINE
  5
133
330
1F
100
AcDbEntity
  8
0
  6
CONTINUOUS
 62
     7
100
AcDbLine
 10
2.7385016681
 20
5.0527167349
 30
0.0
 11
2.7385016681
 21
5.0579773875
 31
0.0
  0
LINE
  5
134
330
1F
100
AcDbEntity
  8
0
  6
CONTINUOUS
 62
     7
100
AcDbLine
 10
2.7621236752
 20
5.4073335717
 30
0.0
 11
2.7621236752
 21
5.4125941509
 31
0.0
  0
SPLINE
  5
135
330
1F
100
AcDbEntity
  8
0
  6
CONTINUOUS
 62
     7
100
AcDbSpline
210
0.0
220
0.0
230
1.0
 70
    24
 71
     3
 72
     9
 73
     5
 74
     0
 42
0.000000001
 43
0.00000001
 40
0.0
 40
0.0
 40
0.0
 40
0.0
 40
0.4999966053370784
 40
1.0
 40
1.0
 40
1.0
 40
1.0
 10
2.762123675216698
 20
5.418679133969096
 30
0.0
 10
2.762123675216698
 20
5.417576418110265
 30
0.0
 10
2.762123675216698
 20
5.415370971419105
 30
0.0
 10
2.762123675216698
 20
5.413519761949193
 30
0.0
 10
2.762123675216698
 20
5.412594150930007
 30
0.0
  0
LINE
  5
136
330
1F
100
AcDbEntity
  8
0
  6
CONTINUOUS
 62
     7
100
AcDbLine
 10
2.7621236752
 20
5.4265532097
 30
0.0
 11
2.7621236752
 21
5.418679134
 31
0.0
  0
LINE
  5
137
330
1F
100
AcDbEntity
  8
0
  6
CONTINUOUS
 62
     7
100
AcDbLine
 10
2.7621236752
 20
5.3202538843
 30
0.0
 11
2.7621236752
 21
5.3261594228
 31
0.0
  0
LINE
  5
138
330
1F
100
AcDbEntity
  8
0
  6
CONTINUOUS
 62
     7
100
AcDbLine
 10
2.7621236752
 20
5.3880046683
 30
0.0
 11
2.7621236752
 21
5.4048995932
 31
0.0
  0
SPLINE
  5
139
330
1F
100
AcDbEntity
  8
0
  6
CONTINUOUS
 62
     7
100
AcDbSpline
210
0.0
220
0.0
230
1.0
 70
    24
 71
     3
 72
     9
 73
     5
 74
     0
 42
0.000000001
 43
0.00000001
 40
0.0
 40
0.0
 40
0.0
 40
0.0
 40
0.4999836260747807
 40
1.0
 40
1.0
 40
1.0
 40
1.0
 10
2.762123675216698
 20
5.404899593151528
 30
0.0
 10
2.762123675216697
 20
5.40534066336977
 30
0.0
 10
2.762123675216697
 20
5.406222832695404
 30
0.0
 10
2.762123675216698
 20
5.406963317282485
 30
0.0
 10
2.762123675216698
 20
5.407333571700667
 30
0.0
  0
LINE
  5
13A
330
1F
100
AcDbEntity
  8
0
  6
CONTINUOUS
 62
     7
100
AcDbLine
 10
2.7306276657
 20
5.4125941509
 30
0.0
 11
2.7621236752
 21
5.4125941509
 31
0.0
  0
SPLINE
  5
13B
330
1F
100
AcDbEntity
  8
0
  6
CONTINUOUS
 62
     7
100
AcDbSpline
210
0.0
220
0.0
230
1.0
 70
    24
 71
     3
 72
     9
 73
     5
 74
     0
 42
0.000000001
 43
0.00000001
 40
0.0
 40
0.0
 40
0.0
 40
0.0
 40
0.5000033946629215
 40
1.0
 40
1.0
 40
1.0
 40
1.0
 10
2.730627665727954
 20
5.412594150930007
 30
0.0
 10
2.730627665727955
 20
5.413519761949193
 30
0.0
 10
2.730627665727954
 20
5.415370971419105
 30
0.0
 10
2.730627665727954
 20
5.417576418110265
 30
0.0
 10
2.730627665727954
 20
5.418679133969096
 30
0.0
  0
LINE
  5
13C
330
1F
100
AcDbEntity
  8
0
  6
CONTINUOUS
 62
     7
100
AcDbLine
 10
2.7306276657
 20
5.418679134
 30
0.0
 11
2.7621236752
 21
5.418679134
 31
0.0
  0
LINE
  5
13D
330
1F
100
AcDbEntity
  8
0
  6
CONTINUOUS
 62
     7
100
AcDbLine
 10
2.7739347521
 20
5.4423011411
 30
0.0
 11
2.7739347521
 21
5.4265531363
 31
0.0
  0
LINE
  5
13E
330
1F
100
AcDbEntity
  8
0
  6
CONTINUOUS
 62
     7
100
AcDbLine
 10
2.7739347521
 20
5.4265531363
 30
0.0
 11
2.7621236752
 21
5.4265531363
 31
0.0
  0
LINE
  5
13F
330
1F
100
AcDbEntity
  8
0
  6
CONTINUOUS
 62
     7
100
AcDbLine
 10
2.7306276657
 20
5.4265531363
 30
0.0
 11
2.7306276657
 21
5.418679134
 31
0.0
  0
LINE
  5
140
330
1F
100
AcDbEntity
  8
0
  6
CONTINUOUS
 62
     7
100
AcDbLine
 10
2.7621236752
 20
5.4580492192
 30
0.0
 11
2.7621236752
 21
5.4423011411
 31
0.0
  0
LINE
  5
141
330
1F
100
AcDbEntity
  8
0
  6
CONTINUOUS
 62
     7
100
AcDbLine
 10
2.7621236752
 20
5.4423011411
 30
0.0
 11
2.7739347521
 21
5.4423011411
 31
0.0
  0
LINE
  5
142
330
1F
100
AcDbEntity
  8
0
  6
CONTINUOUS
 62
     7
100
AcDbLine
 10
2.7306276657
 20
5.4073335717
 30
0.0
 11
2.7306276657
 21
5.4125941509
 31
0.0
  0
SPLINE
  5
143
330
1F
100
AcDbEntity
  8
0
  6
CONTINUOUS
 62
     7
100
AcDbSpline
210
0.0
220
0.0
230
1.0
 70
    24
 71
     3
 72
     9
 73
     5
 74
     0
 42
0.000000001
 43
0.00000001
 40
0.0
 40
0.0
 40
0.0
 40
0.0
 40
0.4999836260747807
 40
1.0
 40
1.0
 40
1.0
 40
1.0
 10
2.730627665727954
 20
5.404899593151528
 30
0.0
 10
2.730627665727953
 20
5.40534066336977
 30
0.0
 10
2.730627665727953
 20
5.406222832695404
 30
0.0
 10
2.730627665727954
 20
5.406963317282485
 30
0.0
 10
2.730627665727954
 20
5.407333571700667
 30
0.0
  0
LINE
  5
144
330
1F
100
AcDbEntity
  8
0
  6
CONTINUOUS
 62
     7
100
AcDbLine
 10
2.7306276657
 20
5.3852145139
 30
0.0
 11
2.7306276657
 21
5.4048995932
 31
0.0
  0
LINE
  5
145
330
1F
100
AcDbEntity
  8
0
  6
CONTINUOUS
 62
     7
100
AcDbLine
 10
2.2266904873
 20
5.2198601707
 30
0.0
 11
2.2555556205
 21
5.2198601707
 31
0.0
  0
LINE
  5
146
330
1F
100
AcDbEntity
  8
0
  6
CONTINUOUS
 62
     7
100
AcDbLine
 10
2.2266904873
 20
5.1765530844
 30
0.0
 11
2.2519212625
 21
5.1765530844
 31
0.0
  0
LINE
  5
147
330
1F
100
AcDbEntity
  8
0
  6
CONTINUOUS
 62
     7
100
AcDbLine
 10
2.2442462844
 20
5.1174979932
 30
0.0
 11
2.2266904873
 21
5.1174979932
 31
0.0
  0
LINE
  5
148
330
1F
100
AcDbEntity
  8
0
  6
CONTINUOUS
 62
     7
100
AcDbLine
 10
2.2266904873
 20
5.133245998
 30
0.0
 11
2.2482869044
 21
5.133245998
 31
0.0
  0
LINE
  5
149
330
1F
100
AcDbEntity
  8
0
  6
CONTINUOUS
 62
     7
100
AcDbLine
 10
2.2266904873
 20
5.2631672571
 30
0.0
 11
2.2572076547
 21
5.2631672571
 31
0.0
  0
LINE
  5
14A
330
1F
100
AcDbEntity
  8
0
  6
CONTINUOUS
 62
     7
100
AcDbLine
 10
2.2266904873
 20
5.3497814299
 30
0.0
 11
2.2499389387
 21
5.3497814299
 31
0.0
  0
LINE
  5
14B
330
1F
100
AcDbEntity
  8
0
  6
CONTINUOUS
 62
     7
100
AcDbLine
 10
2.2548950414
 20
5.2907263388
 30
0.0
 11
2.2266904873
 21
5.2907263388
 31
0.0
  0
LINE
  5
14C
330
1F
100
AcDbEntity
  8
0
  6
CONTINUOUS
 62
     7
100
AcDbLine
 10
2.2505998111
 20
5.1608050796
 30
0.0
 11
2.2266904873
 21
5.1608050796
 31
0.0
  0
LINE
  5
14D
330
1F
100
AcDbEntity
  8
0
  6
CONTINUOUS
 62
     7
100
AcDbLine
 10
2.2266904873
 20
5.3064743435
 30
0.0
 11
2.2535732967
 21
5.3064743435
 31
0.0
  0
LINE
  5
14E
330
1F
100
AcDbEntity
  8
0
  6
CONTINUOUS
 62
     7
100
AcDbLine
 10
2.2462667411
 20
5.3773405115
 30
0.0
 11
2.2266904873
 21
5.3773405115
 31
0.0
  0
LINE
  5
14F
330
1F
100
AcDbEntity
  8
0
  6
CONTINUOUS
 62
     7
100
AcDbLine
 10
2.2351545228
 20
5.4206475979
 30
0.0
 11
2.2266904873
 21
5.4206475979
 31
0.0
  0
LINE
  5
150
330
1F
100
AcDbEntity
  8
0
  6
CONTINUOUS
 62
     7
100
AcDbLine
 10
2.2266904873
 20
5.3930885163
 30
0.0
 11
2.2422258278
 21
5.3930885163
 31
0.0
  0
LINE
  5
151
330
1F
100
AcDbEntity
  8
0
  6
CONTINUOUS
 62
     7
100
AcDbLine
 10
2.2542341691
 20
5.204112166
 30
0.0
 11
2.2266904873
 21
5.204112166
 31
0.0
  0
LINE
  5
152
330
1F
100
AcDbEntity
  8
0
  6
CONTINUOUS
 62
     7
100
AcDbLine
 10
2.2578685271
 20
5.2474192524
 30
0.0
 11
2.2266904873
 21
5.2474192524
 31
0.0
  0
LINE
  5
153
330
1F
100
AcDbEntity
  8
0
  6
CONTINUOUS
 62
     7
100
AcDbLine
 10
2.2512606834
 20
5.3340334251
 30
0.0
 11
2.2266904873
 21
5.3340334251
 31
0.0
  0
LINE
  5
154
330
1F
100
AcDbEntity
  8
0
  6
CONTINUOUS
 62
     7
100
AcDbLine
 10
2.7621236752
 20
5.0579773875
 30
0.0
 11
2.7385016681
 21
5.0579773875
 31
0.0
  0
LINE
  5
155
330
1F
100
AcDbEntity
  8
0
  6
CONTINUOUS
 62
     7
100
AcDbLine
 10
2.7306276657
 20
5.4073335717
 30
0.0
 11
2.7621236752
 21
5.4073335717
 31
0.0
  0
LINE
  5
156
330
1F
100
AcDbEntity
  8
0
  6
CONTINUOUS
 62
     7
100
AcDbLine
 10
2.7621236752
 20
5.060411366
 30
0.0
 11
2.7385016681
 21
5.060411366
 31
0.0
  0
LINE
  5
157
330
1F
100
AcDbEntity
  8
0
  6
CONTINUOUS
 62
     7
100
AcDbLine
 10
2.7306276657
 20
5.4048995932
 30
0.0
 11
2.7621236752
 21
5.4048995932
 31
0.0
  0
LINE
  5
158
330
1F
100
AcDbEntity
  8
0
  6
CONTINUOUS
 62
     7
100
AcDbLine
 10
2.7621236752
 20
5.0722223696
 30
0.0
 11
2.7385016681
 21
5.0722223696
 31
0.0
  0
LINE
  5
159
330
1F
100
AcDbEntity
  8
0
  6
CONTINUOUS
 62
     7
100
AcDbLine
 10
2.2266904873
 20
5.2474192524
 30
0.0
 11
2.2266904873
 21
5.2631672571
 31
0.0
  0
LINE
  5
15A
330
1F
100
AcDbEntity
  8
0
  6
CONTINUOUS
 62
     7
100
AcDbLine
 10
2.2266904873
 20
5.204112166
 30
0.0
 11
2.2266904873
 21
5.2198601707
 31
0.0
  0
LINE
  5
15B
330
1F
100
AcDbEntity
  8
0
  6
CONTINUOUS
 62
     7
100
AcDbLine
 10
2.2266904873
 20
5.1608050796
 30
0.0
 11
2.2266904873
 21
5.1765530844
 31
0.0
  0
LINE
  5
15C
330
1F
100
AcDbEntity
  8
0
  6
CONTINUOUS
 62
     7
100
AcDbLine
 10
2.2266904873
 20
5.4206475979
 30
0.0
 11
2.2266904873
 21
5.4363956026
 31
0.0
  0
LINE
  5
15D
330
1F
100
AcDbEntity
  8
0
  6
CONTINUOUS
 62
     7
100
AcDbLine
 10
2.2266904873
 20
5.3340334251
 30
0.0
 11
2.2266904873
 21
5.3497814299
 31
0.0
  0
LINE
  5
15E
330
1F
100
AcDbEntity
  8
0
  6
CONTINUOUS
 62
     7
100
AcDbLine
 10
2.2266904873
 20
5.133245998
 30
0.0
 11
2.2266904873
 21
5.1174979932
 31
0.0
  0
LINE
  5
15F
330
1F
100
AcDbEntity
  8
0
  6
CONTINUOUS
 62
     7
100
AcDbLine
 10
2.2266904873
 20
5.2907263388
 30
0.0
 11
2.2266904873
 21
5.3064743435
 31
0.0
  0
LINE
  5
160
330
1F
100
AcDbEntity
  8
0
  6
CONTINUOUS
 62
     7
100
AcDbLine
 10
2.2266904873
 20
5.3773405115
 30
0.0
 11
2.2266904873
 21
5.3930885163
 31
0.0
  0
LINE
  5
161
330
1F
100
AcDbEntity
  8
0
  6
CONTINUOUS
 62
     7
100
AcDbLine
 10
2.9338387315
 20
3.9686685513
 30
0.0
 11
2.9338387315
 21
4.6086685479
 31
0.0
  0
LINE
  5
162
330
1F
100
AcDbEntity
  8
0
  6
CONTINUOUS
 62
     7
100
AcDbLine
 10
2.9338387315
 20
4.6086685479
 30
0.0
 11
1.9338386703
 21
4.6086685479
 31
0.0
  0
LINE
  5
163
330
1F
100
AcDbEntity
  8
0
  6
CONTINUOUS
 62
     7
100
AcDbLine
 10
2.9338387315
 20
3.9686685513
 30
0.0
 11
1.9338386703
 21
3.9686685513
 31
0.0
  0
LINE
  5
164
330
1F
100
AcDbEntity
  8
0
  6
CONTINUOUS
 62
     7
100
AcDbLine
 10
1.9338386703
 20
3.9686685513
 30
0.0
 11
1.9338386703
 21
4.6086685479
 31
0.0
  0
LINE
  5
165
330
1F
100
AcDbEntity
  8
0
  6
CONTINUOUS
 62
     7
100
AcDbLine
 10
2.6801288624
 20
2.9914147606
 30
0.0
 11
2.6801288624
 21
2.8664146979
 31
0.0
  0
LINE
  5
166
330
1F
100
AcDbEntity
  8
0
  6
CONTINUOUS
 62
     7
100
AcDbLine
 10
2.6801288624
 20
2.8664146979
 30
0.0
 11
2.4355287947
 21
2.8664146979
 31
0.0
  0
LINE
  5
167
330
1F
100
AcDbEntity
  8
0
  6
CONTINUOUS
 62
     7
100
AcDbLine
 10
2.6801288624
 20
2.9914147606
 30
0.0
 11
2.4355287947
 21
2.9914147606
 31
0.0
  0
LINE
  5
168
330
1F
100
AcDbEntity
  8
0
  6
CONTINUOUS
 62
     7
100
AcDbLine
 10
2.4355287947
 20
2.9914147606
 30
0.0
 11
2.4355287947
 21
2.8664146979
 31
0.0
  0
LINE
  5
169
330
1F
100
AcDbEntity
  8
0
  6
CONTINUOUS
 62
     7
100
AcDbLine
 10
2.5603286597
 20
2.741414782
 30
0.0
 11
2.5553288508
 21
2.741414782
 31
0.0
  0
LINE
  5
16A
330
1F
100
AcDbEntity
  8
0
  6
CONTINUOUS
 62
     7
100
AcDbLine
 10
2.6801288624
 20
3.2214147703
 30
0.0
 11
2.4355287947
 21
3.2214147703
 31
0.0
  0
LINE
  5
16B
330
1F
100
AcDbEntity
  8
0
  6
CONTINUOUS
 62
     7
100
AcDbLine
 10
2.6801288624
 20
3.2214147703
 30
0.0
 11
2.6801288624
 21
2.9914147606
 31
0.0
  0
LINE
  5
16C
330
1F
100
AcDbEntity
  8
0
  6
CONTINUOUS
 62
     7
100
AcDbLine
 10
2.4355287947
 20
3.2214147703
 30
0.0
 11
2.4355287947
 21
2.9914147606
 31
0.0
  0
LINE
  5
16D
330
1F
100
AcDbEntity
  8
0
  6
CONTINUOUS
 62
     7
100
AcDbLine
 10
2.3891286908
 20
2.9931357274
 30
0.0
 11
2.3891286908
 21
2.8681358114
 31
0.0
  0
LINE
  5
16E
330
1F
100
AcDbEntity
  8
0
  6
CONTINUOUS
 62
     7
100
AcDbLine
 10
2.1445287697
 20
2.9931357274
 30
0.0
 11
2.1445287697
 21
2.8681358114
 31
0.0
  0
LINE
  5
16F
330
1F
100
AcDbEntity
  8
0
  6
CONTINUOUS
 62
     7
100
AcDbLine
 10
2.3891286908
 20
2.9931357274
 30
0.0
 11
2.1445287697
 21
2.9931357274
 31
0.0
  0
LINE
  5
170
330
1F
100
AcDbEntity
  8
0
  6
CONTINUOUS
 62
     7
100
AcDbLine
 10
2.3891286908
 20
2.8681358114
 30
0.0
 11
2.1445287697
 21
2.8681358114
 31
0.0
  0
LINE
  5
171
330
1F
100
AcDbEntity
  8
0
  6
CONTINUOUS
 62
     7
100
AcDbLine
 10
2.269328928
 20
2.7431357487
 30
0.0
 11
2.2643288258
 21
2.7431357487
 31
0.0
  0
LINE
  5
172
330
1F
100
AcDbEntity
  8
0
  6
CONTINUOUS
 62
     7
100
AcDbLine
 10
2.3891286908
 20
3.2231358104
 30
0.0
 11
2.1445287697
 21
3.2231358104
 31
0.0
  0
LINE
  5
173
330
1F
100
AcDbEntity
  8
0
  6
CONTINUOUS
 62
     7
100
AcDbLine
 10
2.1445287697
 20
3.2231358104
 30
0.0
 11
2.1445287697
 21
2.9931357274
 31
0.0
  0
LINE
  5
174
330
1F
100
AcDbEntity
  8
0
  6
CONTINUOUS
 62
     7
100
AcDbLine
 10
2.3891286908
 20
3.2231358104
 30
0.0
 11
2.3891286908
 21
2.9931357274
 31
0.0
  0
CIRCLE
  5
175
330
1F
100
AcDbEntity
  8
0
  6
CONTINUOUS
 62
     7
100
AcDbCircle
 10
7.6088287925
 20
5.4501357931
 30
0.0
 40
0.0200000000000005
  0
CIRCLE
  5
176
330
1F
100
AcDbEntity
  8
0
  6
CONTINUOUS
 62
     7
100
AcDbCircle
 10
7.5088287925
 20
5.4501357931
 30
0.0
 40
0.0200000000000005
  0
CIRCLE
  5
177
330
1F
100
AcDbEntity
  8
0
  6
CONTINUOUS
 62
     7
100
AcDbCircle
 10
7.4088287925
 20
5.4501357931
 30
0.0
 40
0.0200000000000005
  0
CIRCLE
  5
178
330
1F
100
AcDbEntity
  8
0
  6
CONTINUOUS
 62
     7
100
AcDbCircle
 10
7.3088287925
 20
5.3501357931
 30
0.0
 40
0.0200000000000005
  0
CIRCLE
  5
179
330
1F
100
AcDbEntity
  8
0
  6
CONTINUOUS
 62
     7
100
AcDbCircle
 10
7.2088287925
 20
5.4501357931
 30
0.0
 40
0.0200000000000005
  0
CIRCLE
  5
17A
330
1F
100
AcDbEntity
  8
0
  6
CONTINUOUS
 62
     7
100
AcDbCircle
 10
7.1088287925
 20
5.4501357931
 30
0.0
 40
0.0200000000000005
  0
CIRCLE
  5
17B
330
1F
100
AcDbEntity
  8
0
  6
CONTINUOUS
 62
     7
100
AcDbCircle
 10
7.6206287925
 20
3.4619357931
 30
0.0
 40
0.02
  0
CIRCLE
  5
17C
330
1F
100
AcDbEntity
  8
0
  6
CONTINUOUS
 62
     7
100
AcDbCircle
 10
7.6056787925
 20
3.0501357931
 30
0.0
 40
0.0255899999999998
  0
CIRCLE
  5
17D
330
1F
100
AcDbEntity
  8
0
  6
CONTINUOUS
 62
     7
100
AcDbCircle
 10
7.4088287925
 20
3.0501357931
 30
0.0
 40
0.0255899999999998
  0
CIRCLE
  5
17E
330
1F
100
AcDbEntity
  8
0
  6
CONTINUOUS
 62
     7
100
AcDbCircle
 10
7.6206287925
 20
3.5619357931
 30
0.0
 40
0.02
  0
CIRCLE
  5
17F
330
1F
100
AcDbEntity
  8
0
  6
CONTINUOUS
 62
     7
100
AcDbCircle
 10
6.8088287925
 20
5.4501357931
 30
0.0
 40
0.0200000000000005
  0
CIRCLE
  5
180
330
1F
100
AcDbEntity
  8
0
  6
CONTINUOUS
 62
     7
100
AcDbCircle
 10
3.8088287925
 20
5.3501357931
 30
0.0
 40
0.0200000000000005
  0
CIRCLE
  5
181
330
1F
100
AcDbEntity
  8
0
  6
CONTINUOUS
 62
     7
100
AcDbCircle
 10
3.9088287925
 20
5.3501357931
 30
0.0
 40
0.0200000000000005
  0
CIRCLE
  5
182
330
1F
100
AcDbEntity
  8
0
  6
CONTINUOUS
 62
     7
100
AcDbCircle
 10
4.2088287925
 20
5.3501357931
 30
0.0
 40
0.0200000000000005
  0
CIRCLE
  5
183
330
1F
100
AcDbEntity
  8
0
  6
CONTINUOUS
 62
     7
100
AcDbCircle
 10
3.6088287925
 20
5.4501357931
 30
0.0
 40
0.0200000000000005
  0
CIRCLE
  5
184
330
1F
100
AcDbEntity
  8
0
  6
CONTINUOUS
 62
     7
100
AcDbCircle
 10
2.9088287925
 20
4.8501357931
 30
0.0
 40
0.0900000000000007
  0
CIRCLE
  5
185
330
1F
100
AcDbEntity
  8
0
  6
CONTINUOUS
 62
     7
100
AcDbCircle
 10
6.5088287925
 20
3.0501357931
 30
0.0
 40
0.0255899999999998
  0
CIRCLE
  5
186
330
1F
100
AcDbEntity
  8
0
  6
CONTINUOUS
 62
     7
100
AcDbCircle
 10
6.1993787925
 20
3.0501357931
 30
0.0
 40
0.0255899999999998
  0
CIRCLE
  5
187
330
1F
100
AcDbEntity
  8
0
  6
CONTINUOUS
 62
     7
100
AcDbCircle
 10
5.8056787925
 20
3.0501357931
 30
0.0
 40
0.0255899999999998
  0
CIRCLE
  5
188
330
1F
100
AcDbEntity
  8
0
  6
CONTINUOUS
 62
     7
100
AcDbCircle
 10
5.1025287925
 20
3.0501357931
 30
0.0
 40
0.0255899999999998
  0
CIRCLE
  5
189
330
1F
100
AcDbEntity
  8
0
  6
CONTINUOUS
 62
     7
100
AcDbCircle
 10
4.3993787925
 20
3.0501357931
 30
0.0
 40
0.0255900000000007
  0
CIRCLE
  5
18A
330
1F
100
AcDbEntity
  8
0
  6
CONTINUOUS
 62
     7
100
AcDbCircle
 10
3.8088287925
 20
3.0501357931
 30
0.0
 40
0.0255900000000007
  0
CIRCLE
  5
18B
330
1F
100
AcDbEntity
  8
0
  6
CONTINUOUS
 62
     7
100
AcDbCircle
 10
3.5025287925
 20
3.0501357931
 30
0.0
 40
0.0255900000000007
  0
CIRCLE
  5
18C
330
1F
100
AcDbEntity
  8
0
  6
CONTINUOUS
 62
     7
100
AcDbCircle
 10
3.1088287925
 20
3.0501357931
 30
0.0
 40
0.0255900000000007
  0
CIRCLE
  5
18D
330
1F
100
AcDbEntity
  8
0
  6
CONTINUOUS
 62
     7
100
AcDbCircle
 10
2.9088287925
 20
3.0501357931
 30
0.0
 40
0.0255900000000007
  0
CIRCLE
  5
18E
330
1F
100
AcDbEntity
  8
0
  6
CONTINUOUS
 62
     7
100
AcDbCircle
 10
3.0088287925
 20
3.1501357931
 30
0.0
 40
0.0199999999999991
  0
CIRCLE
  5
18F
330
1F
100
AcDbEntity
  8
0
  6
CONTINUOUS
 62
     7
100
AcDbCircle
 10
2.1875287925
 20
4.8611357931
 30
0.0
 40
0.0200000000000005
  0
CIRCLE
  5
190
330
1F
100
AcDbEntity
  8
0
  6
CONTINUOUS
 62
     7
100
AcDbCircle
 10
2.4158287925
 20
3.6421357931
 30
0.0
 40
0.0199999999999991
  0
LINE
  5
191
330
1F
100
AcDbEntity
  8
0
  6
CONTINUOUS
 62
     7
100
AcDbLine
 10
8.1088288296
 20
5.5501358287
 30
0.0
 11
2.1088287555
 21
5.5501358287
 31
0.0
  0
LINE
  5
192
330
1F
100
AcDbEntity
  8
0
  6
CONTINUOUS
 62
     7
100
AcDbLine
 10
8.1088288296
 20
2.9501357575
 30
0.0
 11
8.1088288296
 21
5.5501358287
 31
0.0
  0
LINE
  5
193
330
1F
100
AcDbEntity
  8
0
  6
CONTINUOUS
 62
     7
100
AcDbLine
 10
2.1088287555
 20
2.9501357575
 30
0.0
 11
2.1445287697
 21
2.9501357575
 31
0.0
  0
LINE
  5
194
330
1F
100
AcDbEntity
  8
0
  6
CONTINUOUS
 62
     7
100
AcDbLine
 10
2.3891286908
 20
2.9501357575
 30
0.0
 11
2.4355287947
 21
2.9501357575
 31
0.0
  0
LINE
  5
195
330
1F
100
AcDbEntity
  8
0
  6
CONTINUOUS
 62
     7
100
AcDbLine
 10
2.6801288624
 20
2.9501357575
 30
0.0
 11
8.1088288296
 21
2.9501357575
 31
0.0
  0
CIRCLE
  5
196
330
1F
100
AcDbEntity
  8
0
  6
CONTINUOUS
 62
     7
100
AcDbCircle
 10
2.4938287925
 20
3.5441357931
 30
0.0
 40
0.0200000000000005
  0
CIRCLE
  5
197
330
1F
100
AcDbEntity
  8
0
  6
CONTINUOUS
 62
     7
100
AcDbCircle
 10
2.4938287925
 20
3.6421357931
 30
0.0
 40
0.0199999999999991
  0
CIRCLE
  5
198
330
1F
100
AcDbEntity
  8
0
  6
CONTINUOUS
 62
     7
100
AcDbCircle
 10
2.1875287925
 20
4.7611357931
 30
0.0
 40
0.0200000000000005
  0
CIRCLE
  5
199
330
1F
100
AcDbEntity
  8
0
  6
CONTINUOUS
 62
     7
100
AcDbCircle
 10
4.8088287925
 20
3.4501357931
 30
0.0
 40
0.0900000000000003
  0
CIRCLE
  5
19A
330
1F
100
AcDbEntity
  8
0
  6
CONTINUOUS
 62
     7
100
AcDbCircle
 10
2.9088287925
 20
3.1501357931
 30
0.0
 40
0.0199999999999991
  0
CIRCLE
  5
19B
330
1F
100
AcDbEntity
  8
0
  6
CONTINUOUS
 62
     7
100
AcDbCircle
 10
3.0088287925
 20
3.0501357931
 30
0.0
 40
0.0200000000000005
  0
CIRCLE
  5
19C
330
1F
100
AcDbEntity
  8
0
  6
CONTINUOUS
 62
     7
100
AcDbCircle
 10
3.1088287925
 20
3.1501357931
 30
0.0
 40
0.0199999999999991
  0
CIRCLE
  5
19D
330
1F
100
AcDbEntity
  8
0
  6
CONTINUOUS
 62
     7
100
AcDbCircle
 10
3.3056787925
 20
3.0501357931
 30
0.0
 40
0.0255900000000007
  0
CIRCLE
  5
19E
330
1F
100
AcDbEntity
  8
0
  6
CONTINUOUS
 62
     7
100
AcDbCircle
 10
4.2025287925
 20
3.0501357931
 30
0.0
 40
0.0255900000000007
  0
CIRCLE
  5
19F
330
1F
100
AcDbEntity
  8
0
  6
CONTINUOUS
 62
     7
100
AcDbCircle
 10
4.0056787925
 20
3.0501357931
 30
0.0
 40
0.0255900000000007
  0
CIRCLE
  5
1A0
330
1F
100
AcDbEntity
  8
0
  6
CONTINUOUS
 62
     7
100
AcDbCircle
 10
4.7088287925
 20
3.0501357931
 30
0.0
 40
0.0255900000000007
  0
CIRCLE
  5
1A1
330
1F
100
AcDbEntity
  8
0
  6
CONTINUOUS
 62
     7
100
AcDbCircle
 10
4.9056787925
 20
3.0501357931
 30
0.0
 40
0.0255899999999998
  0
CIRCLE
  5
1A2
330
1F
100
AcDbEntity
  8
0
  6
CONTINUOUS
 62
     7
100
AcDbCircle
 10
5.6088287925
 20
3.0501357931
 30
0.0
 40
0.0255899999999998
  0
CIRCLE
  5
1A3
330
1F
100
AcDbEntity
  8
0
  6
CONTINUOUS
 62
     7
100
AcDbCircle
 10
6.0025287925
 20
3.0501357931
 30
0.0
 40
0.0255899999999998
  0
CIRCLE
  5
1A4
330
1F
100
AcDbEntity
  8
0
  6
CONTINUOUS
 62
     7
100
AcDbCircle
 10
6.7056787925
 20
3.0501357931
 30
0.0
 40
0.0255899999999998
  0
CIRCLE
  5
1A5
330
1F
100
AcDbEntity
  8
0
  6
CONTINUOUS
 62
     7
100
AcDbCircle
 10
6.9025287925
 20
3.0501357931
 30
0.0
 40
0.0255899999999998
  0
CIRCLE
  5
1A6
330
1F
100
AcDbEntity
  8
0
  6
CONTINUOUS
 62
     7
100
AcDbCircle
 10
3.5088287925
 20
5.3501357931
 30
0.0
 40
0.0200000000000005
  0
CIRCLE
  5
1A7
330
1F
100
AcDbEntity
  8
0
  6
CONTINUOUS
 62
     7
100
AcDbCircle
 10
3.5088287925
 20
5.4501357931
 30
0.0
 40
0.0200000000000005
  0
CIRCLE
  5
1A8
330
1F
100
AcDbEntity
  8
0
  6
CONTINUOUS
 62
     7
100
AcDbCircle
 10
4.2088287925
 20
5.4501357931
 30
0.0
 40
0.0200000000000005
  0
CIRCLE
  5
1A9
330
1F
100
AcDbEntity
  8
0
  6
CONTINUOUS
 62
     7
100
AcDbCircle
 10
3.9088287925
 20
5.4501357931
 30
0.0
 40
0.0200000000000005
  0
CIRCLE
  5
1AA
330
1F
100
AcDbEntity
  8
0
  6
CONTINUOUS
 62
     7
100
AcDbCircle
 10
3.7088287925
 20
5.3501357931
 30
0.0
 40
0.0200000000000005
  0
CIRCLE
  5
1AB
330
1F
100
AcDbEntity
  8
0
  6
CONTINUOUS
 62
     7
100
AcDbCircle
 10
3.7088287925
 20
5.4501357931
 30
0.0
 40
0.0200000000000005
  0
CIRCLE
  5
1AC
330
1F
100
AcDbEntity
  8
0
  6
CONTINUOUS
 62
     7
100
AcDbCircle
 10
6.9088287925
 20
5.3501357931
 30
0.0
 40
0.0200000000000005
  0
CIRCLE
  5
1AD
330
1F
100
AcDbEntity
  8
0
  6
CONTINUOUS
 62
     7
100
AcDbCircle
 10
6.9088287925
 20
5.4501357931
 30
0.0
 40
0.0200000000000005
  0
CIRCLE
  5
1AE
330
1F
100
AcDbEntity
  8
0
  6
CONTINUOUS
 62
     7
100
AcDbCircle
 10
7.0993787925
 20
3.0501357931
 30
0.0
 40
0.0255899999999998
  0
CIRCLE
  5
1AF
330
1F
100
AcDbEntity
  8
0
  6
CONTINUOUS
 62
     7
100
AcDbCircle
 10
7.8025287925
 20
3.0501357931
 30
0.0
 40
0.0255899999999998
  0
CIRCLE
  5
1B0
330
1F
100
AcDbEntity
  8
0
  6
CONTINUOUS
 62
     7
100
AcDbCircle
 10
7.9993787925
 20
3.0501357931
 30
0.0
 40
0.0255899999999998
  0
CIRCLE
  5
1B1
330
1F
100
AcDbEntity
  8
0
  6
CONTINUOUS
 62
     7
100
AcDbCircle
 10
7.2088287925
 20
5.3501357931
 30
0.0
 40
0.0200000000000005
  0
CIRCLE
  5
1B2
330
1F
100
AcDbEntity
  8
0
  6
CONTINUOUS
 62
     7
100
AcDbCircle
 10
7.0088287925
 20
5.4501357931
 30
0.0
 40
0.0200000000000005
  0
CIRCLE
  5
1B3
330
1F
100
AcDbEntity
  8
0
  6
CONTINUOUS
 62
     7
100
AcDbCircle
 10
7.4088287925
 20
5.3501357931
 30
0.0
 40
0.0200000000000005
  0
CIRCLE
  5
1B4
330
1F
100
AcDbEntity
  8
0
  6
CONTINUOUS
 62
     7
100
AcDbCircle
 10
7.5088287925
 20
5.3501357931
 30
0.0
 40
0.0200000000000005
  0
CIRCLE
  5
1B5
330
1F
100
AcDbEntity
  8
0
  6
CONTINUOUS
 62
     7
100
AcDbCircle
 10
7.3088287925
 20
5.4501357931
 30
0.0
 40
0.0200000000000005
  0
CIRCLE
  5
1B6
330
1F
100
AcDbEntity
  8
0
  6
CONTINUOUS
 62
     7
100
AcDbCircle
 10
7.6088287925
 20
5.3501357931
 30
0.0
 40
0.0200000000000005
  0
CIRCLE
  5
1B7
330
1F
100
AcDbEntity
  8
0
  6
CONTINUOUS
 62
     7
100
AcDbCircle
 10
3.5108287925
 20
5.1271357931
 30
0.0
 40
0.0214999999999996
  0
CIRCLE
  5
1B8
330
1F
100
AcDbEntity
  8
0
  6
CONTINUOUS
 62
     7
100
AcDbCircle
 10
4.5488287925
 20
5.1831357931
 30
0.0
 40
0.0625
  0
CIRCLE
  5
1B9
330
1F
100
AcDbEntity
  8
0
  6
CONTINUOUS
 62
     7
100
AcDbCircle
 10
4.2738287925
 20
5.1271357931
 30
0.0
 40
0.0214999999999996
  0
CIRCLE
  5
1BA
330
1F
100
AcDbEntity
  8
0
  6
CONTINUOUS
 62
     7
100
AcDbCircle
 10
4.1648287925
 20
5.1271357931
 30
0.0
 40
0.0214999999999996
  0
CIRCLE
  5
1BB
330
1F
100
AcDbEntity
  8
0
  6
CONTINUOUS
 62
     7
100
AcDbCircle
 10
4.0558287925
 20
5.1271357931
 30
0.0
 40
0.0214999999999996
  0
CIRCLE
  5
1BC
330
1F
100
AcDbEntity
  8
0
  6
CONTINUOUS
 62
     7
100
AcDbCircle
 10
3.9468287925
 20
5.1271357931
 30
0.0
 40
0.0214999999999996
  0
CIRCLE
  5
1BD
330
1F
100
AcDbEntity
  8
0
  6
CONTINUOUS
 62
     7
100
AcDbCircle
 10
3.8378287925
 20
5.1271357931
 30
0.0
 40
0.0214999999999996
  0
CIRCLE
  5
1BE
330
1F
100
AcDbEntity
  8
0
  6
CONTINUOUS
 62
     7
100
AcDbCircle
 10
3.7288287925
 20
5.1271357931
 30
0.0
 40
0.0214999999999996
  0
CIRCLE
  5
1BF
330
1F
100
AcDbEntity
  8
0
  6
CONTINUOUS
 62
     7
100
AcDbCircle
 10
3.6198287925
 20
5.1271357931
 30
0.0
 40
0.0214999999999996
  0
CIRCLE
  5
1C0
330
1F
100
AcDbEntity
  8
0
  6
CONTINUOUS
 62
     7
100
AcDbCircle
 10
4.2193287925
 20
5.2391357931
 30
0.0
 40
0.0215000000000014
  0
CIRCLE
  5
1C1
330
1F
100
AcDbEntity
  8
0
  6
CONTINUOUS
 62
     7
100
AcDbCircle
 10
4.1103287925
 20
5.2391357931
 30
0.0
 40
0.0215000000000014
  0
CIRCLE
  5
1C2
330
1F
100
AcDbEntity
  8
0
  6
CONTINUOUS
 62
     7
100
AcDbCircle
 10
3.8923287925
 20
5.2391357931
 30
0.0
 40
0.0215000000000014
  0
CIRCLE
  5
1C3
330
1F
100
AcDbEntity
  8
0
  6
CONTINUOUS
 62
     7
100
AcDbCircle
 10
3.7833287925
 20
5.2391357931
 30
0.0
 40
0.0215000000000014
  0
CIRCLE
  5
1C4
330
1F
100
AcDbEntity
  8
0
  6
CONTINUOUS
 62
     7
100
AcDbCircle
 10
3.6743287925
 20
5.2391357931
 30
0.0
 40
0.0215000000000014
  0
CIRCLE
  5
1C5
330
1F
100
AcDbEntity
  8
0
  6
CONTINUOUS
 62
     7
100
AcDbCircle
 10
3.2358287925
 20
5.1831357931
 30
0.0
 40
0.0625
  0
CIRCLE
  5
1C6
330
1F
100
AcDbEntity
  8
0
  6
CONTINUOUS
 62
     7
100
AcDbCircle
 10
3.5653287925
 20
5.2391357931
 30
0.0
 40
0.0215000000000014
  0
CIRCLE
  5
1C7
330
1F
100
AcDbEntity
  8
0
  6
CONTINUOUS
 62
     7
100
AcDbCircle
 10
5.7068287925
 20
5.1271357931
 30
0.0
 40
0.0214999999999996
  0
CIRCLE
  5
1C8
330
1F
100
AcDbEntity
  8
0
  6
CONTINUOUS
 62
     7
100
AcDbCircle
 10
7.6688287925
 20
5.1271357931
 30
0.0
 40
0.0214999999999996
  0
CIRCLE
  5
1C9
330
1F
100
AcDbEntity
  8
0
  6
CONTINUOUS
 62
     7
100
AcDbCircle
 10
7.5598287925
 20
5.1271357931
 30
0.0
 40
0.0214999999999996
  0
CIRCLE
  5
1CA
330
1F
100
AcDbEntity
  8
0
  6
CONTINUOUS
 62
     7
100
AcDbCircle
 10
7.4508287925
 20
5.1271357931
 30
0.0
 40
0.0214999999999996
  0
CIRCLE
  5
1CB
330
1F
100
AcDbEntity
  8
0
  6
CONTINUOUS
 62
     7
100
AcDbCircle
 10
7.3418287925
 20
5.1271357931
 30
0.0
 40
0.0214999999999996
  0
CIRCLE
  5
1CC
330
1F
100
AcDbEntity
  8
0
  6
CONTINUOUS
 62
     7
100
AcDbCircle
 10
7.2328287925
 20
5.1271357931
 30
0.0
 40
0.0214999999999996
  0
CIRCLE
  5
1CD
330
1F
100
AcDbEntity
  8
0
  6
CONTINUOUS
 62
     7
100
AcDbCircle
 10
7.1238287925
 20
5.1271357931
 30
0.0
 40
0.0214999999999996
  0
CIRCLE
  5
1CE
330
1F
100
AcDbEntity
  8
0
  6
CONTINUOUS
 62
     7
100
AcDbCircle
 10
7.9318287925
 20
5.1831357931
 30
0.0
 40
0.0624999999999991
  0
CIRCLE
  5
1CF
330
1F
100
AcDbEntity
  8
0
  6
CONTINUOUS
 62
     7
100
AcDbCircle
 10
6.4698287925
 20
5.1271357931
 30
0.0
 40
0.0214999999999996
  0
CIRCLE
  5
1D0
330
1F
100
AcDbEntity
  8
0
  6
CONTINUOUS
 62
     7
100
AcDbCircle
 10
6.3608287925
 20
5.1271357931
 30
0.0
 40
0.0214999999999996
  0
CIRCLE
  5
1D1
330
1F
100
AcDbEntity
  8
0
  6
CONTINUOUS
 62
     7
100
AcDbCircle
 10
6.2518287925
 20
5.1271357931
 30
0.0
 40
0.0214999999999996
  0
CIRCLE
  5
1D2
330
1F
100
AcDbEntity
  8
0
  6
CONTINUOUS
 62
     7
100
AcDbCircle
 10
6.1428287925
 20
5.1271357931
 30
0.0
 40
0.0214999999999996
  0
CIRCLE
  5
1D3
330
1F
100
AcDbEntity
  8
0
  6
CONTINUOUS
 62
     7
100
AcDbCircle
 10
6.0338287925
 20
5.1271357931
 30
0.0
 40
0.0214999999999996
  0
CIRCLE
  5
1D4
330
1F
100
AcDbEntity
  8
0
  6
CONTINUOUS
 62
     7
100
AcDbCircle
 10
7.0148287925
 20
5.1271357931
 30
0.0
 40
0.0214999999999996
  0
CIRCLE
  5
1D5
330
1F
100
AcDbEntity
  8
0
  6
CONTINUOUS
 62
     7
100
AcDbCircle
 10
7.2873287925
 20
5.2391357931
 30
0.0
 40
0.0215000000000014
  0
CIRCLE
  5
1D6
330
1F
100
AcDbEntity
  8
0
  6
CONTINUOUS
 62
     7
100
AcDbCircle
 10
7.1783287925
 20
5.2391357931
 30
0.0
 40
0.0215000000000014
  0
CIRCLE
  5
1D7
330
1F
100
AcDbEntity
  8
0
  6
CONTINUOUS
 62
     7
100
AcDbCircle
 10
7.0693287925
 20
5.2391357931
 30
0.0
 40
0.0215000000000014
  0
CIRCLE
  5
1D8
330
1F
100
AcDbEntity
  8
0
  6
CONTINUOUS
 62
     7
100
AcDbCircle
 10
6.9603287925
 20
5.2391357931
 30
0.0
 40
0.0215000000000014
  0
CIRCLE
  5
1D9
330
1F
100
AcDbEntity
  8
0
  6
CONTINUOUS
 62
     7
100
AcDbCircle
 10
6.8513287925
 20
5.2391357931
 30
0.0
 40
0.0215000000000014
  0
CIRCLE
  5
1DA
330
1F
100
AcDbEntity
  8
0
  6
CONTINUOUS
 62
     7
100
AcDbCircle
 10
6.7423287925
 20
5.2391357931
 30
0.0
 40
0.0215000000000005
  0
CIRCLE
  5
1DB
330
1F
100
AcDbEntity
  8
0
  6
CONTINUOUS
 62
     7
100
AcDbCircle
 10
6.6333287925
 20
5.2391357931
 30
0.0
 40
0.0215000000000014
  0
CIRCLE
  5
1DC
330
1F
100
AcDbEntity
  8
0
  6
CONTINUOUS
 62
     7
100
AcDbCircle
 10
6.5243287925
 20
5.2391357931
 30
0.0
 40
0.0215000000000014
  0
CIRCLE
  5
1DD
330
1F
100
AcDbEntity
  8
0
  6
CONTINUOUS
 62
     7
100
AcDbCircle
 10
7.0088287925
 20
5.3501357931
 30
0.0
 40
0.0200000000000005
  0
CIRCLE
  5
1DE
330
1F
100
AcDbEntity
  8
0
  6
CONTINUOUS
 62
     7
100
AcDbCircle
 10
7.1088287925
 20
5.3501357931
 30
0.0
 40
0.0200000000000005
  0
CIRCLE
  5
1DF
330
1F
100
AcDbEntity
  8
0
  6
CONTINUOUS
 62
     7
100
AcDbCircle
 10
7.9588287925
 20
4.8501357931
 30
0.0
 40
0.0900000000000007
  0
CIRCLE
  5
1E0
330
1F
100
AcDbEntity
  8
0
  6
CONTINUOUS
 62
     7
100
AcDbCircle
 10
7.9588287925
 20
3.4501357931
 30
0.0
 40
0.0900000000000003
  0
CIRCLE
  5
1E1
330
1F
100
AcDbEntity
  8
0
  6
CONTINUOUS
 62
     7
100
AcDbCircle
 10
6.1088287925
 20
5.3501357931
 30
0.0
 40
0.0200000000000005
  0
CIRCLE
  5
1E2
330
1F
100
AcDbEntity
  8
0
  6
CONTINUOUS
 62
     7
100
AcDbCircle
 10
6.9058287925
 20
5.1271357931
 30
0.0
 40
0.0214999999999996
  0
CIRCLE
  5
1E3
330
1F
100
AcDbEntity
  8
0
  6
CONTINUOUS
 62
     7
100
AcDbCircle
 10
6.7968287925
 20
5.1271357931
 30
0.0
 40
0.0214999999999996
  0
CIRCLE
  5
1E4
330
1F
100
AcDbEntity
  8
0
  6
CONTINUOUS
 62
     7
100
AcDbCircle
 10
6.6878287925
 20
5.1271357931
 30
0.0
 40
0.0214999999999996
  0
CIRCLE
  5
1E5
330
1F
100
AcDbEntity
  8
0
  6
CONTINUOUS
 62
     7
100
AcDbCircle
 10
7.3963287925
 20
5.2391357931
 30
0.0
 40
0.0215000000000014
  0
CIRCLE
  5
1E6
330
1F
100
AcDbEntity
  8
0
  6
CONTINUOUS
 62
     7
100
AcDbCircle
 10
7.5053287925
 20
5.2391357931
 30
0.0
 40
0.0215000000000014
  0
CIRCLE
  5
1E7
330
1F
100
AcDbEntity
  8
0
  6
CONTINUOUS
 62
     7
100
AcDbCircle
 10
7.6143287925
 20
5.2391357931
 30
0.0
 40
0.0215000000000005
  0
CIRCLE
  5
1E8
330
1F
100
AcDbEntity
  8
0
  6
CONTINUOUS
 62
     7
100
AcDbCircle
 10
6.5788287925
 20
5.1271357931
 30
0.0
 40
0.0214999999999996
  0
CIRCLE
  5
1E9
330
1F
100
AcDbEntity
  8
0
  6
CONTINUOUS
 62
     7
100
AcDbCircle
 10
5.7613287925
 20
5.2391357931
 30
0.0
 40
0.0215000000000014
  0
CIRCLE
  5
1EA
330
1F
100
AcDbEntity
  8
0
  6
CONTINUOUS
 62
     7
100
AcDbCircle
 10
6.8088287925
 20
5.3501357931
 30
0.0
 40
0.0200000000000005
  0
CIRCLE
  5
1EB
330
1F
100
AcDbEntity
  8
0
  6
CONTINUOUS
 62
     7
100
AcDbCircle
 10
6.6088287925
 20
5.4501357931
 30
0.0
 40
0.0200000000000005
  0
CIRCLE
  5
1EC
330
1F
100
AcDbEntity
  8
0
  6
CONTINUOUS
 62
     7
100
AcDbCircle
 10
6.5088287925
 20
5.4501357931
 30
0.0
 40
0.0200000000000005
  0
CIRCLE
  5
1ED
330
1F
100
AcDbEntity
  8
0
  6
CONTINUOUS
 62
     7
100
AcDbCircle
 10
6.6088287925
 20
5.3501357931
 30
0.0
 40
0.0200000000000005
  0
CIRCLE
  5
1EE
330
1F
100
AcDbEntity
  8
0
  6
CONTINUOUS
 62
     7
100
AcDbCircle
 10
6.5088287925
 20
5.3501357931
 30
0.0
 40
0.0200000000000005
  0
CIRCLE
  5
1EF
330
1F
100
AcDbEntity
  8
0
  6
CONTINUOUS
 62
     7
100
AcDbCircle
 10
6.7088287925
 20
5.3501357931
 30
0.0
 40
0.0200000000000005
  0
CIRCLE
  5
1F0
330
1F
100
AcDbEntity
  8
0
  6
CONTINUOUS
 62
     7
100
AcDbCircle
 10
6.7088287925
 20
5.4501357931
 30
0.0
 40
0.0200000000000005
  0
CIRCLE
  5
1F1
330
1F
100
AcDbEntity
  8
0
  6
CONTINUOUS
 62
     7
100
AcDbCircle
 10
6.3088287925
 20
5.4501357931
 30
0.0
 40
0.0200000000000005
  0
CIRCLE
  5
1F2
330
1F
100
AcDbEntity
  8
0
  6
CONTINUOUS
 62
     7
100
AcDbCircle
 10
6.2088287925
 20
5.4501357931
 30
0.0
 40
0.0200000000000005
  0
CIRCLE
  5
1F3
330
1F
100
AcDbEntity
  8
0
  6
CONTINUOUS
 62
     7
100
AcDbCircle
 10
6.3088287925
 20
5.3501357931
 30
0.0
 40
0.0200000000000005
  0
CIRCLE
  5
1F4
330
1F
100
AcDbEntity
  8
0
  6
CONTINUOUS
 62
     7
100
AcDbCircle
 10
6.2088287925
 20
5.3501357931
 30
0.0
 40
0.0200000000000005
  0
CIRCLE
  5
1F5
330
1F
100
AcDbEntity
  8
0
  6
CONTINUOUS
 62
     7
100
AcDbCircle
 10
6.1088287925
 20
5.4501357931
 30
0.0
 40
0.0200000000000005
  0
CIRCLE
  5
1F6
330
1F
100
AcDbEntity
  8
0
  6
CONTINUOUS
 62
     7
100
AcDbCircle
 10
5.9088287925
 20
5.4501357931
 30
0.0
 40
0.0200000000000005
  0
CIRCLE
  5
1F7
330
1F
100
AcDbEntity
  8
0
  6
CONTINUOUS
 62
     7
100
AcDbCircle
 10
6.0088287925
 20
5.4501357931
 30
0.0
 40
0.0200000000000005
  0
CIRCLE
  5
1F8
330
1F
100
AcDbEntity
  8
0
  6
CONTINUOUS
 62
     7
100
AcDbCircle
 10
3.6088287925
 20
5.3501357931
 30
0.0
 40
0.0200000000000005
  0
CIRCLE
  5
1F9
330
1F
100
AcDbEntity
  8
0
  6
CONTINUOUS
 62
     7
100
AcDbCircle
 10
6.1973287925
 20
5.2391357931
 30
0.0
 40
0.0215000000000014
  0
CIRCLE
  5
1FA
330
1F
100
AcDbEntity
  8
0
  6
CONTINUOUS
 62
     7
100
AcDbCircle
 10
6.3063287925
 20
5.2391357931
 30
0.0
 40
0.0215000000000014
  0
CIRCLE
  5
1FB
330
1F
100
AcDbEntity
  8
0
  6
CONTINUOUS
 62
     7
100
AcDbCircle
 10
5.9088287925
 20
5.3501357931
 30
0.0
 40
0.0200000000000005
  0
CIRCLE
  5
1FC
330
1F
100
AcDbEntity
  8
0
  6
CONTINUOUS
 62
     7
100
AcDbCircle
 10
6.0088287925
 20
5.3501357931
 30
0.0
 40
0.0200000000000005
  0
CIRCLE
  5
1FD
330
1F
100
AcDbEntity
  8
0
  6
CONTINUOUS
 62
     7
100
AcDbCircle
 10
6.4088287925
 20
5.3501357931
 30
0.0
 40
0.0200000000000005
  0
CIRCLE
  5
1FE
330
1F
100
AcDbEntity
  8
0
  6
CONTINUOUS
 62
     7
100
AcDbCircle
 10
2.9088287925
 20
3.4501357931
 30
0.0
 40
0.0899999999999994
  0
CIRCLE
  5
1FF
330
1F
100
AcDbEntity
  8
0
  6
CONTINUOUS
 62
     7
100
AcDbCircle
 10
5.8088287925
 20
5.4501357931
 30
0.0
 40
0.0200000000000005
  0
CIRCLE
  5
200
330
1F
100
AcDbEntity
  8
0
  6
CONTINUOUS
 62
     7
100
AcDbCircle
 10
5.7088287925
 20
5.4501357931
 30
0.0
 40
0.0200000000000005
  0
CIRCLE
  5
201
330
1F
100
AcDbEntity
  8
0
  6
CONTINUOUS
 62
     7
100
AcDbCircle
 10
5.4318287925
 20
5.1831357931
 30
0.0
 40
0.0625
  0
CIRCLE
  5
202
330
1F
100
AcDbEntity
  8
0
  6
CONTINUOUS
 62
     7
100
AcDbCircle
 10
5.8703287925
 20
5.2391357931
 30
0.0
 40
0.0215000000000014
  0
CIRCLE
  5
203
330
1F
100
AcDbEntity
  8
0
  6
CONTINUOUS
 62
     7
100
AcDbCircle
 10
5.9793287925
 20
5.2391357931
 30
0.0
 40
0.0215000000000014
  0
CIRCLE
  5
204
330
1F
100
AcDbEntity
  8
0
  6
CONTINUOUS
 62
     7
100
AcDbCircle
 10
6.0883287925
 20
5.2391357931
 30
0.0
 40
0.0215000000000014
  0
CIRCLE
  5
205
330
1F
100
AcDbEntity
  8
0
  6
CONTINUOUS
 62
     7
100
AcDbCircle
 10
4.1088287925
 20
5.3501357931
 30
0.0
 40
0.0200000000000005
  0
CIRCLE
  5
206
330
1F
100
AcDbEntity
  8
0
  6
CONTINUOUS
 62
     7
100
AcDbCircle
 10
6.4153287925
 20
5.2391357931
 30
0.0
 40
0.0215000000000014
  0
CIRCLE
  5
207
330
1F
100
AcDbEntity
  8
0
  6
CONTINUOUS
 62
     7
100
AcDbCircle
 10
5.8158287925
 20
5.1271357931
 30
0.0
 40
0.0214999999999996
  0
CIRCLE
  5
208
330
1F
100
AcDbEntity
  8
0
  6
CONTINUOUS
 62
     7
100
AcDbCircle
 10
5.9248287925
 20
5.1271357931
 30
0.0
 40
0.0214999999999996
  0
CIRCLE
  5
209
330
1F
100
AcDbEntity
  8
0
  6
CONTINUOUS
 62
     7
100
AcDbCircle
 10
4.0013287925
 20
5.2391357931
 30
0.0
 40
0.0215000000000014
  0
CIRCLE
  5
20A
330
1F
100
AcDbEntity
  8
0
  6
CONTINUOUS
 62
     7
100
AcDbCircle
 10
6.4088287925
 20
5.4501357931
 30
0.0
 40
0.0200000000000005
  0
LINE
  5
20B
330
1F
100
AcDbEntity
  8
0
  6
CONTINUOUS
 62
     7
100
AcDbLine
 10
2.1088287555
 20
5.5501358287
 30
0.0
 11
2.1088287555
 21
4.6086685479
 31
0.0
  0
LINE
  5
20C
330
1F
100
AcDbEntity
  8
0
  6
CONTINUOUS
 62
     7
100
AcDbLine
 10
2.1088287555
 20
3.9686685513
 30
0.0
 11
2.1088287555
 21
2.9501357575
 31
0.0
  0
CIRCLE
  5
20D
330
1F
100
AcDbEntity
  8
0
  6
CONTINUOUS
 62
     7
100
AcDbCircle
 10
5.8088287925
 20
5.3501357931
 30
0.0
 40
0.0200000000000005
  0
CIRCLE
  5
20E
330
1F
100
AcDbEntity
  8
0
  6
CONTINUOUS
 62
     7
100
AcDbCircle
 10
5.7088287925
 20
5.3501357931
 30
0.0
 40
0.0200000000000005
  0
CIRCLE
  5
20F
330
1F
100
AcDbEntity
  8
0
  6
CONTINUOUS
 62
     7
100
AcDbCircle
 10
5.0088287925
 20
5.2501357931
 30
0.0
 40
0.0900000000000007
  0
CIRCLE
  5
210
330
1F
100
AcDbEntity
  8
0
  6
CONTINUOUS
 62
     7
100
AcDbCircle
 10
4.1088287925
 20
5.4501357931
 30
0.0
 40
0.0200000000000005
  0
CIRCLE
  5
211
330
1F
100
AcDbEntity
  8
0
  6
CONTINUOUS
 62
     7
100
AcDbCircle
 10
4.0088287925
 20
5.4501357931
 30
0.0
 40
0.0200000000000005
  0
CIRCLE
  5
212
330
1F
100
AcDbEntity
  8
0
  6
CONTINUOUS
 62
     7
100
AcDbCircle
 10
5.2993787925
 20
3.0501357931
 30
0.0
 40
0.0255899999999998
  0
CIRCLE
  5
213
330
1F
100
AcDbEntity
  8
0
  6
CONTINUOUS
 62
     7
100
AcDbCircle
 10
4.0088287925
 20
5.3501357931
 30
0.0
 40
0.0200000000000005
  0
CIRCLE
  5
214
330
1F
100
AcDbEntity
  8
0
  6
CONTINUOUS
 62
     7
100
AcDbCircle
 10
2.4158287925
 20
3.5441357931
 30
0.0
 40
0.0200000000000005
  0
CIRCLE
  5
215
330
1F
100
AcDbEntity
  8
0
  6
CONTINUOUS
 62
     7
100
AcDbCircle
 10
3.8088287925
 20
5.4501357931
 30
0.0
 40
0.0200000000000005
  0
LINE
  5
216
330
1F
100
AcDbEntity
  8
0
  6
CONTINUOUS
 62
     8
100
AcDbLine
 10
2.4603286682
 20
2.8364148178
 30
0.0
 11
2.6553288423
 21
2.8364148178
 31
0.0
  0
LINE
  5
217
330
1F
100
AcDbEntity
  8
0
  6
CONTINUOUS
 62
     8
100
AcDbLine
 10
2.1693289366
 20
2.8381357846
 30
0.0
 11
2.3643288172
 21
2.8381357846
 31
0.0
  0
ENDSEC
  0
SECTION
  2
OBJECTS
  0
DICTIONARY
  5
C
330
0
100
AcDbDictionary
  3
ACAD_GROUP
350
D
  3
ACAD_MLINESTYLE
350
17
  3
ACAD_SCALELIST
350
47
  0
DICTIONARY
  5
D
102
{ACAD_REACTORS
330
C
102
}
330
C
100
AcDbDictionary
  0
DICTIONARY
  5
17
102
{ACAD_REACTORS
330
C
102
}
330
C
100
AcDbDictionary
  3
STANDARD
350
18
  0
DICTIONARY
  5
47
102
{ACAD_REACTORS
330
C
102
}
330
C
100
AcDbDictionary
  0
MLINESTYLE
  5
18
102
{ACAD_REACTORS
330
17
102
}
330
17
100
AcDbMlineStyle
  2
Standard
 70
     0
  3

 62
   256
 51
90.0
 52
90.0
 71
     2
 49
0.5
 62
   256
  6
BYLAYER
 49
-0.5
 62
   256
  6
BYLAYER
  0
ENDSEC
  0
EOF
