  0
SECTION
  2
HEADER
  9
$ACADVER
  1
AC1012
  9
$DWGCODEPAGE
  3
ansi_1252
  9
$INSBASE
 10
0.0
 20
0.0
 30
0.0
  9
$EXTMIN
 10
-2.036191371546137
 20
-5.656695890335588
 30
0.0
  9
$EXTMAX
 10
10.09660890694416
 20
4.436015962443118
 30
0.0
  9
$LIMMIN
 10
0.0
 20
0.0
  9
$LIMMAX
 10
12.0
 20
9.0
  9
$ORTHOMODE
 70
     0
  9
$REGENMODE
 70
     1
  9
$FILLMODE
 70
     1
  9
$QTEXTMODE
 70
     0
  9
$MIRRTEXT
 70
     1
  9
$DRAGMODE
 70
     2
  9
$LTSCALE
 40
0.5
  9
$OSMODE
 70
   511
  9
$ATTMODE
 70
     1
  9
$TEXTSIZE
 40
0.075
  9
$TRACEWID
 40
0.05
  9
$TEXTSTYLE
  7
STANDARD
  9
$CLAYER
  8
0
  9
$CELTYPE
  6
BYLAYER
  9
$CECOLOR
 62
   256
  9
$CELTSCALE
 40
1.0
  9
$DELOBJ
 70
     1
  9
$DISPSILH
 70
     0
  9
$DIMSCALE
 40
1.0
  9
$DIMASZ
 40
0.1
  9
$DIMEXO
 40
0.0625
  9
$DIMDLI
 40
0.38
  9
$DIMRND
 40
0.0
  9
$DIMDLE
 40
0.0
  9
$DIMEXE
 40
0.0625
  9
$DIMTP
 40
0.0
  9
$DIMTM
 40
0.0
  9
$DIMTXT
 40
0.18
  9
$DIMCEN
 40
0.09
  9
$DIMTSZ
 40
0.0
  9
$DIMTOL
 70
     0
  9
$DIMLIM
 70
     0
  9
$DIMTIH
 70
     1
  9
$DIMTOH
 70
     1
  9
$DIMSE1
 70
     0
  9
$DIMSE2
 70
     0
  9
$DIMTAD
 70
     0
  9
$DIMZIN
 70
     0
  9
$DIMBLK
  1

  9
$DIMASO
 70
     1
  9
$DIMSHO
 70
     1
  9
$DIMPOST
  1

  9
$DIMAPOST
  1

  9
$DIMALT
 70
     0
  9
$DIMALTD
 70
     2
  9
$DIMALTF
 40
25.4
  9
$DIMLFAC
 40
1.0
  9
$DIMTOFL
 70
     0
  9
$DIMTVP
 40
0.0
  9
$DIMTIX
 70
     0
  9
$DIMSOXD
 70
     0
  9
$DIMSAH
 70
     0
  9
$DIMBLK1
  1

  9
$DIMBLK2
  1

  9
$DIMSTYLE
  2
STANDARD
  9
$DIMCLRD
 70
     0
  9
$DIMCLRE
 70
     0
  9
$DIMCLRT
 70
     0
  9
$DIMTFAC
 40
1.0
  9
$DIMGAP
 40
0.09
  9
$DIMJUST
 70
     0
  9
$DIMSD1
 70
     0
  9
$DIMSD2
 70
     0
  9
$DIMTOLJ
 70
     1
  9
$DIMTZIN
 70
     0
  9
$DIMALTZ
 70
     0
  9
$DIMALTTZ
 70
     0
  9
$DIMFIT
 70
     3
  9
$DIMUPT
 70
     0
  9
$DIMUNIT
 70
     2
  9
$DIMDEC
 70
     3
  9
$DIMTDEC
 70
     4
  9
$DIMALTU
 70
     2
  9
$DIMALTTD
 70
     2
  9
$DIMTXSTY
  7
STANDARD
  9
$DIMAUNIT
 70
     0
  9
$LUNITS
 70
     2
  9
$LUPREC
 70
     4
  9
$SKETCHINC
 40
0.1
  9
$FILLETRAD
 40
0.5
  9
$AUNITS
 70
     0
  9
$AUPREC
 70
     0
  9
$MENU
  1
.
  9
$ELEVATION
 40
0.0
  9
$PELEVATION
 40
0.0
  9
$THICKNESS
 40
0.0
  9
$LIMCHECK
 70
     0
  9
$CHAMFERA
 40
0.5
  9
$CHAMFERB
 40
0.5
  9
$CHAMFERC
 40
1.0
  9
$CHAMFERD
 40
0.0
  9
$SKPOLY
 70
     0
  9
$TDCREATE
 40
2456051.976636644
  9
$TDUPDATE
 40
2458513.929435023
  9
$TDINDWG
 40
0.0
  9
$TDUSRTIMER
 40
0.0
  9
$USRTIMER
 70
     1
  9
$ANGBASE
 50
0.0
  9
$ANGDIR
 70
     0
  9
$PDMODE
 70
     0
  9
$PDSIZE
 40
0.0
  9
$PLINEWID
 40
0.0
  9
$COORDS
 70
     1
  9
$SPLFRAME
 70
     0
  9
$SPLINETYPE
 70
     6
  9
$SPLINESEGS
 70
     8
  9
$ATTDIA
 70
     0
  9
$ATTREQ
 70
     1
  9
$HANDLING
 70
     1
  9
$HANDSEED
  5
151
  9
$SURFTAB1
 70
     6
  9
$SURFTAB2
 70
     6
  9
$SURFTYPE
 70
     6
  9
$SURFU
 70
     6
  9
$SURFV
 70
     6
  9
$UCSNAME
  2

  9
$UCSORG
 10
0.0
 20
0.0
 30
0.0
  9
$UCSXDIR
 10
1.0
 20
0.0
 30
0.0
  9
$UCSYDIR
 10
0.0
 20
1.0
 30
0.0
  9
$PUCSNAME
  2

  9
$PUCSORG
 10
0.0
 20
0.0
 30
0.0
  9
$PUCSXDIR
 10
1.0
 20
0.0
 30
0.0
  9
$PUCSYDIR
 10
0.0
 20
1.0
 30
0.0
  9
$USERI1
 70
     0
  9
$USERI2
 70
     0
  9
$USERI3
 70
     0
  9
$USERI4
 70
     0
  9
$USERI5
 70
     0
  9
$USERR1
 40
0.0
  9
$USERR2
 40
0.0
  9
$USERR3
 40
0.0
  9
$USERR4
 40
0.0
  9
$USERR5
 40
0.0
  9
$WORLDVIEW
 70
     1
  9
$SHADEDGE
 70
     3
  9
$SHADEDIF
 70
    70
  9
$TILEMODE
 70
     1
  9
$MAXACTVP
 70
    48
  9
$PINSBASE
 10
0.0
 20
0.0
 30
0.0
  9
$PLIMCHECK
 70
     0
  9
$PEXTMIN
 10
1.000000000000000E+20
 20
1.000000000000000E+20
 30
1.000000000000000E+20
  9
$PEXTMAX
 10
-1.000000000000000E+20
 20
-1.000000000000000E+20
 30
-1.000000000000000E+20
  9
$PLIMMIN
 10
0.0
 20
0.0
  9
$PLIMMAX
 10
0.0
 20
0.0
  9
$UNITMODE
 70
     0
  9
$VISRETAIN
 70
     1
  9
$PLINEGEN
 70
     0
  9
$PSLTSCALE
 70
     1
  9
$TREEDEPTH
 70
  3020
  9
$PICKSTYLE
 70
     1
  9
$CMLSTYLE
  2
STANDARD
  9
$CMLJUST
 70
     0
  9
$CMLSCALE
 40
1.0
  9
$SAVEIMAGES
 70
     1
  0
ENDSEC
  0
SECTION
  2
CLASSES
  0
CLASS
  1
ACDBDICTIONARYWDFLT
  2
AcDbDictionaryWithDefault
  3
ObjectDBX Classes
 90
    32768
280
     0
281
     0
  0
CLASS
  1
MATERIAL
  2
AcDbMaterial
  3
ObjectDBX Classes
 90
     1153
280
     0
281
     0
  0
CLASS
  1
VISUALSTYLE
  2
AcDbVisualStyle
  3
ObjectDBX Classes
 90
     4095
280
     0
281
     0
  0
CLASS
  1
SUN
  2
AcDbSun
  3
SCENEOE
 90
     1153
280
     0
281
     0
  0
CLASS
  1
SCALE
  2
AcDbScale
  3
ObjectDBX Classes
 90
     1153
280
     0
281
     0
  0
CLASS
  1
XRECORD
  2
AcDbXrecord
  3
ObjectDBX Classes
 90
    32768
280
     0
281
     0
  0
ENDSEC
  0
SECTION
  2
TABLES
  0
TABLE
  2
VPORT
  5
22
330
0
100
AcDbSymbolTable
 70
     3
  0
VPORT
  5
26
330
22
100
AcDbSymbolTableRecord
100
AcDbViewportTableRecord
  2
*ACTIVE
 70
     0
 10
0.0
 20
0.0
 11
1.0
 21
1.0
 12
3.0
 22
1.3
 13
0.0
 23
0.0
 14
0.5
 24
0.5
 15
0.5
 25
0.5
 16
0.0
 26
0.0
 36
1.0
 17
0.0
 27
0.0
 37
0.0
 40
3.12
 41
2.307692307692307
 42
50.0
 43
0.0
 44
0.0
 50
0.0
 51
0.0
 71
    16
 72
   100
 73
     1
 74
     1
 75
     0
 76
     0
 77
     0
 78
     0
  0
ENDTAB
  0
TABLE
  2
LTYPE
  5
B
330
0
100
AcDbSymbolTable
 70
     3
  0
LTYPE
  5
C
330
B
100
AcDbSymbolTableRecord
100
AcDbLinetypeTableRecord
  2
BYBLOCK
 70
     0
  3

 72
    65
 73
     0
 40
0.0
  0
LTYPE
  5
D
330
B
100
AcDbSymbolTableRecord
100
AcDbLinetypeTableRecord
  2
BYLAYER
 70
     0
  3

 72
    65
 73
     0
 40
0.0
  0
LTYPE
  5
A
330
B
100
AcDbSymbolTableRecord
100
AcDbLinetypeTableRecord
  2
CONTINUOUS
 70
     0
  3
Solid line
 72
    65
 73
     0
 40
0.0
  0
ENDTAB
  0
TABLE
  2
LAYER
  5
2
102
{ACAD_XDICTIONARY
360
3
102
}
330
0
100
AcDbSymbolTable
 70
     3
  0
LAYER
  5
1
330
2
100
AcDbSymbolTableRecord
100
AcDbLayerTableRecord
  2
0
 70
     0
 62
     7
  6
CONTINUOUS
  0
ENDTAB
  0
TABLE
  2
STYLE
  5
F
330
0
100
AcDbSymbolTable
 70
     1
  0
STYLE
  5
E
330
F
100
AcDbSymbolTableRecord
100
AcDbTextStyleTableRecord
  2
STANDARD
 70
     0
 40
0.075
 41
1.0
 50
0.0
 71
     0
 42
0.075
  3
ARIAL.TTF
  4

1001
ACAD
1000
Arial
1071
       34
  0
ENDTAB
  0
TABLE
  2
VIEW
  5
20
330
0
100
AcDbSymbolTable
 70
     0
  0
ENDTAB
  0
TABLE
  2
UCS
  5
21
330
0
100
AcDbSymbolTable
 70
     0
  0
ENDTAB
  0
TABLE
  2
APPID
  5
11
330
0
100
AcDbSymbolTable
 70
     2
  0
APPID
  5
10
330
11
100
AcDbSymbolTableRecord
100
AcDbRegAppTableRecord
  2
ACAD
 70
     0
  0
ENDTAB
  0
TABLE
  2
DIMSTYLE
  5
13
330
0
100
AcDbSymbolTable
 70
     1
  0
DIMSTYLE
105
12
102
{ACAD_REACTORS
102
}
330
13
100
AcDbSymbolTableRecord
100
AcDbDimStyleTableRecord
  2
STANDARD
 70
     0
  3

  4

  5

  6

  7

 40
1.0
 41
0.18
 42
0.0625
 43
0.38
 44
0.18
 45
0.0
 46
0.0
 47
0.0
 48
0.0
140
0.18
141
0.09
142
0.0
143
25.4
144
1.0
145
0.0
146
1.0
147
0.09
 71
     0
 72
     0
 73
     1
 74
     1
 75
     0
 76
     0
 77
     0
 78
     0
170
     0
171
     2
172
     0
173
     0
174
     0
175
     0
176
     0
177
     0
178
     0
270
     2
271
     4
272
     4
273
     2
274
     2
340
E
275
     0
280
     0
281
     0
282
     0
283
     1
284
     0
285
     0
286
     0
287
     3
288
     0
  0
ENDTAB
  0
TABLE
  2
BLOCK_RECORD
  5
16
330
0
100
AcDbSymbolTable
 70
    58
  0
BLOCK_RECORD
  5
17
330
16
100
AcDbSymbolTableRecord
100
AcDbBlockTableRecord
  2
*MODEL_SPACE
  0
BLOCK_RECORD
  5
1C
330
16
100
AcDbSymbolTableRecord
100
AcDbBlockTableRecord
  2
*PAPER_SPACE
  0
ENDTAB
  0
ENDSEC
  0
SECTION
  2
BLOCKS
  0
BLOCK
  5
18
330
17
100
AcDbEntity
  8
0
100
AcDbBlockBegin
  2
*MODEL_SPACE
 70
     0
 10
0.0
 20
0.0
 30
0.0
  3
*MODEL_SPACE
  1

  0
ENDBLK
  5
19
330
17
100
AcDbEntity
  8
0
100
AcDbBlockEnd
  0
BLOCK
  5
1D
330
1C
100
AcDbEntity
 67
     1
  8
0
100
AcDbBlockBegin
  2
*PAPER_SPACE
 70
     0
 10
0.0
 20
0.0
 30
0.0
  3
*PAPER_SPACE
  1

  0
ENDBLK
  5
1E
330
1C
100
AcDbEntity
 67
     1
  8
0
100
AcDbBlockEnd
  0
ENDSEC
  0
SECTION
  2
ENTITIES
  0
LINE
  5
4F
102
{ACAD_REACTORS
102
}
330
17
100
AcDbEntity
  8
0
100
AcDbLine
 10
0.0
 20
0.0
 30
0.0
 11
6.0
 21
0.0
 31
0.0
  0
LINE
  5
50
330
17
100
AcDbEntity
  8
0
100
AcDbLine
 10
6.0
 20
0.0
 30
0.0
 11
6.0
 21
2.6
 31
0.0
  0
LINE
  5
51
330
17
100
AcDbEntity
  8
0
100
AcDbLine
 10
6.0
 20
2.6
 30
0.0
 11
0.0
 21
2.6
 31
0.0
  0
LINE
  5
52
330
17
100
AcDbEntity
  8
0
100
AcDbLine
 10
0.0
 20
2.6
 30
0.0
 11
0.0
 21
0.0
 31
0.0
  0
CIRCLE
  5
53
330
17
100
AcDbEntity
  8
0
100
AcDbCircle
 10
0.8
 20
0.5
 30
0.0
 40
0.09
  0
CIRCLE
  5
54
330
17
100
AcDbEntity
  8
0
100
AcDbCircle
 10
2.7
 20
0.5
 30
0.0
 40
0.09
  0
CIRCLE
  5
55
330
17
100
AcDbEntity
  8
0
100
AcDbCircle
 10
5.85
 20
0.5
 30
0.0
 40
0.09
  0
CIRCLE
  5
56
330
17
100
AcDbEntity
  8
0
100
AcDbCircle
 10
5.85
 20
1.9
 30
0.0
 40
0.09
  0
CIRCLE
  5
57
330
17
100
AcDbEntity
  8
0
100
AcDbCircle
 10
2.9
 20
2.3
 30
0.0
 40
0.09
  0
CIRCLE
  5
58
330
17
100
AcDbEntity
  8
0
100
AcDbCircle
 10
0.8
 20
1.9
 30
0.0
 40
0.09
  0
CIRCLE
  5
59
330
17
100
AcDbEntity
  8
0
100
AcDbCircle
 10
0.8
 20
0.1
 30
0.0
 40
0.02559
  0
CIRCLE
  5
5A
330
17
100
AcDbEntity
  8
0
100
AcDbCircle
 10
0.8
 20
0.2
 30
0.0
 40
0.02
  0
CIRCLE
  5
5B
330
17
100
AcDbEntity
  8
0
100
AcDbCircle
 10
0.9
 20
0.1
 30
0.0
 40
0.02
  0
CIRCLE
  5
5C
330
17
100
AcDbEntity
  8
0
100
AcDbCircle
 10
0.9
 20
0.2
 30
0.0
 40
0.02
  0
CIRCLE
  5
5D
330
17
100
AcDbEntity
  8
0
100
AcDbCircle
 10
1.0
 20
0.1
 30
0.0
 40
0.02559
  0
CIRCLE
  5
5E
330
17
100
AcDbEntity
  8
0
100
AcDbCircle
 10
1.0
 20
0.2
 30
0.0
 40
0.02
  0
CIRCLE
  5
5F
330
17
100
AcDbEntity
  8
0
100
AcDbCircle
 10
1.4
 20
2.4
 30
0.0
 40
0.02
  0
CIRCLE
  5
60
330
17
100
AcDbEntity
  8
0
100
AcDbCircle
 10
1.4
 20
2.5
 30
0.0
 40
0.02
  0
CIRCLE
  5
61
330
17
100
AcDbEntity
  8
0
100
AcDbCircle
 10
1.5
 20
2.4
 30
0.0
 40
0.02
  0
CIRCLE
  5
62
330
17
100
AcDbEntity
  8
0
100
AcDbCircle
 10
1.5
 20
2.5
 30
0.0
 40
0.02
  0
CIRCLE
  5
63
330
17
100
AcDbEntity
  8
0
100
AcDbCircle
 10
1.6
 20
2.4
 30
0.0
 40
0.02
  0
CIRCLE
  5
64
330
17
100
AcDbEntity
  8
0
100
AcDbCircle
 10
1.6
 20
2.5
 30
0.0
 40
0.02
  0
CIRCLE
  5
65
330
17
100
AcDbEntity
  8
0
100
AcDbCircle
 10
1.7
 20
2.4
 30
0.0
 40
0.02
  0
CIRCLE
  5
66
330
17
100
AcDbEntity
  8
0
100
AcDbCircle
 10
1.7
 20
2.5
 30
0.0
 40
0.02
  0
CIRCLE
  5
67
330
17
100
AcDbEntity
  8
0
100
AcDbCircle
 10
1.8
 20
2.4
 30
0.0
 40
0.02
  0
CIRCLE
  5
68
330
17
100
AcDbEntity
  8
0
100
AcDbCircle
 10
1.8
 20
2.5
 30
0.0
 40
0.02
  0
CIRCLE
  5
69
330
17
100
AcDbEntity
  8
0
100
AcDbCircle
 10
1.9
 20
2.4
 30
0.0
 40
0.02
  0
CIRCLE
  5
6A
330
17
100
AcDbEntity
  8
0
100
AcDbCircle
 10
1.9
 20
2.5
 30
0.0
 40
0.02
  0
CIRCLE
  5
6B
330
17
100
AcDbEntity
  8
0
100
AcDbCircle
 10
2.0
 20
2.4
 30
0.0
 40
0.02
  0
CIRCLE
  5
6C
330
17
100
AcDbEntity
  8
0
100
AcDbCircle
 10
2.0
 20
2.5
 30
0.0
 40
0.02
  0
CIRCLE
  5
6D
330
17
100
AcDbEntity
  8
0
100
AcDbCircle
 10
2.1
 20
2.4
 30
0.0
 40
0.02
  0
CIRCLE
  5
6E
330
17
100
AcDbEntity
  8
0
100
AcDbCircle
 10
2.1
 20
2.5
 30
0.0
 40
0.02
  0
CIRCLE
  5
6F
330
17
100
AcDbEntity
  8
0
100
AcDbCircle
 10
3.6
 20
2.4
 30
0.0
 40
0.02
  0
CIRCLE
  5
70
330
17
100
AcDbEntity
  8
0
100
AcDbCircle
 10
3.6
 20
2.5
 30
0.0
 40
0.02
  0
CIRCLE
  5
71
330
17
100
AcDbEntity
  8
0
100
AcDbCircle
 10
3.7
 20
2.4
 30
0.0
 40
0.02
  0
CIRCLE
  5
72
330
17
100
AcDbEntity
  8
0
100
AcDbCircle
 10
3.7
 20
2.5
 30
0.0
 40
0.02
  0
CIRCLE
  5
73
330
17
100
AcDbEntity
  8
0
100
AcDbCircle
 10
3.8
 20
2.4
 30
0.0
 40
0.02
  0
CIRCLE
  5
74
330
17
100
AcDbEntity
  8
0
100
AcDbCircle
 10
3.8
 20
2.5
 30
0.0
 40
0.02
  0
CIRCLE
  5
75
330
17
100
AcDbEntity
  8
0
100
AcDbCircle
 10
3.9
 20
2.4
 30
0.0
 40
0.02
  0
CIRCLE
  5
76
330
17
100
AcDbEntity
  8
0
100
AcDbCircle
 10
3.9
 20
2.5
 30
0.0
 40
0.02
  0
CIRCLE
  5
77
330
17
100
AcDbEntity
  8
0
100
AcDbCircle
 10
4.0
 20
2.4
 30
0.0
 40
0.02
  0
CIRCLE
  5
78
330
17
100
AcDbEntity
  8
0
100
AcDbCircle
 10
4.0
 20
2.5
 30
0.0
 40
0.02
  0
CIRCLE
  5
79
330
17
100
AcDbEntity
  8
0
100
AcDbCircle
 10
4.1
 20
2.4
 30
0.0
 40
0.02
  0
CIRCLE
  5
7A
330
17
100
AcDbEntity
  8
0
100
AcDbCircle
 10
4.1
 20
2.5
 30
0.0
 40
0.02
  0
CIRCLE
  5
7B
330
17
100
AcDbEntity
  8
0
100
AcDbCircle
 10
4.2
 20
2.4
 30
0.0
 40
0.02
  0
CIRCLE
  5
7C
330
17
100
AcDbEntity
  8
0
100
AcDbCircle
 10
4.2
 20
2.5
 30
0.0
 40
0.02
  0
CIRCLE
  5
7D
330
17
100
AcDbEntity
  8
0
100
AcDbCircle
 10
4.3
 20
2.4
 30
0.0
 40
0.02
  0
CIRCLE
  5
7E
330
17
100
AcDbEntity
  8
0
100
AcDbCircle
 10
4.3
 20
2.5
 30
0.0
 40
0.02
  0
CIRCLE
  5
7F
330
17
100
AcDbEntity
  8
0
100
AcDbCircle
 10
4.4
 20
2.4
 30
0.0
 40
0.02
  0
CIRCLE
  5
80
330
17
100
AcDbEntity
  8
0
100
AcDbCircle
 10
4.4
 20
2.5
 30
0.0
 40
0.02
  0
CIRCLE
  5
81
330
17
100
AcDbEntity
  8
0
100
AcDbCircle
 10
4.5
 20
2.4
 30
0.0
 40
0.02
  0
CIRCLE
  5
82
330
17
100
AcDbEntity
  8
0
100
AcDbCircle
 10
4.5
 20
2.5
 30
0.0
 40
0.02
  0
CIRCLE
  5
83
330
17
100
AcDbEntity
  8
0
100
AcDbCircle
 10
4.6
 20
2.4
 30
0.0
 40
0.02
  0
CIRCLE
  5
84
330
17
100
AcDbEntity
  8
0
100
AcDbCircle
 10
4.6
 20
2.5
 30
0.0
 40
0.02
  0
CIRCLE
  5
85
330
17
100
AcDbEntity
  8
0
100
AcDbCircle
 10
4.7
 20
2.4
 30
0.0
 40
0.02
  0
CIRCLE
  5
86
330
17
100
AcDbEntity
  8
0
100
AcDbCircle
 10
4.7
 20
2.5
 30
0.0
 40
0.02
  0
CIRCLE
  5
87
330
17
100
AcDbEntity
  8
0
100
AcDbCircle
 10
4.800000000000001
 20
2.4
 30
0.0
 40
0.02
  0
CIRCLE
  5
88
330
17
100
AcDbEntity
  8
0
100
AcDbCircle
 10
4.800000000000001
 20
2.5
 30
0.0
 40
0.02
  0
CIRCLE
  5
89
330
17
100
AcDbEntity
  8
0
100
AcDbCircle
 10
4.9
 20
2.4
 30
0.0
 40
0.02
  0
CIRCLE
  5
8A
330
17
100
AcDbEntity
  8
0
100
AcDbCircle
 10
4.9
 20
2.5
 30
0.0
 40
0.02
  0
CIRCLE
  5
8B
330
17
100
AcDbEntity
  8
0
100
AcDbCircle
 10
5.0
 20
2.4
 30
0.0
 40
0.02
  0
CIRCLE
  5
8C
330
17
100
AcDbEntity
  8
0
100
AcDbCircle
 10
5.0
 20
2.5
 30
0.0
 40
0.02
  0
CIRCLE
  5
8D
330
17
100
AcDbEntity
  8
0
100
AcDbCircle
 10
5.1
 20
2.4
 30
0.0
 40
0.02
  0
CIRCLE
  5
8E
330
17
100
AcDbEntity
  8
0
100
AcDbCircle
 10
5.1
 20
2.5
 30
0.0
 40
0.02
  0
CIRCLE
  5
8F
330
17
100
AcDbEntity
  8
0
100
AcDbCircle
 10
5.2
 20
2.4
 30
0.0
 40
0.02
  0
CIRCLE
  5
90
330
17
100
AcDbEntity
  8
0
100
AcDbCircle
 10
5.2
 20
2.5
 30
0.0
 40
0.02
  0
CIRCLE
  5
91
330
17
100
AcDbEntity
  8
0
100
AcDbCircle
 10
5.300000000000001
 20
2.4
 30
0.0
 40
0.02
  0
CIRCLE
  5
92
330
17
100
AcDbEntity
  8
0
100
AcDbCircle
 10
5.300000000000001
 20
2.5
 30
0.0
 40
0.02
  0
CIRCLE
  5
93
330
17
100
AcDbEntity
  8
0
100
AcDbCircle
 10
5.4
 20
2.4
 30
0.0
 40
0.02
  0
CIRCLE
  5
94
330
17
100
AcDbEntity
  8
0
100
AcDbCircle
 10
5.4
 20
2.5
 30
0.0
 40
0.02
  0
CIRCLE
  5
95
330
17
100
AcDbEntity
  8
0
100
AcDbCircle
 10
5.5
 20
2.4
 30
0.0
 40
0.02
  0
CIRCLE
  5
96
330
17
100
AcDbEntity
  8
0
100
AcDbCircle
 10
5.5
 20
2.5
 30
0.0
 40
0.02
  0
LINE
  5
97
330
17
100
AcDbEntity
  8
0
100
AcDbLine
 10
1.42
 20
2.38
 30
0.0
 11
1.42
 21
2.42
 31
0.0
  0
LINE
  5
98
330
17
100
AcDbEntity
  8
0
100
AcDbLine
 10
1.38
 20
2.42
 30
0.0
 11
1.42
 21
2.42
 31
0.0
  0
LINE
  5
99
330
17
100
AcDbEntity
  8
0
100
AcDbLine
 10
1.38
 20
2.38
 30
0.0
 11
1.38
 21
2.42
 31
0.0
  0
LINE
  5
9A
330
17
100
AcDbEntity
  8
0
100
AcDbLine
 10
1.38
 20
2.38
 30
0.0
 11
1.42
 21
2.38
 31
0.0
  0
LINE
  5
9B
330
17
100
AcDbEntity
  8
0
100
AcDbLine
 10
3.620000000000001
 20
2.38
 30
0.0
 11
3.620000000000001
 21
2.42
 31
0.0
  0
LINE
  5
9C
330
17
100
AcDbEntity
  8
0
100
AcDbLine
 10
3.580000000000001
 20
2.42
 30
0.0
 11
3.620000000000001
 21
2.42
 31
0.0
  0
LINE
  5
9D
330
17
100
AcDbEntity
  8
0
100
AcDbLine
 10
3.580000000000001
 20
2.38
 30
0.0
 11
3.580000000000001
 21
2.42
 31
0.0
  0
LINE
  5
9E
330
17
100
AcDbEntity
  8
0
100
AcDbLine
 10
3.58
 20
2.38
 30
0.0
 11
3.620000000000001
 21
2.38
 31
0.0
  0
POLYLINE
  5
9F
330
17
100
AcDbEntity
  8
0
100
AcDb2dPolyline
 66
     1
 10
0.0
 20
0.0
 30
0.0
 70
     1
  0
VERTEX
  5
115
330
9F
100
AcDbEntity
  8
0
100
AcDbVertex
100
AcDb2dVertex
 10
0.77441
 20
0.12559
 30
0.0
  0
VERTEX
  5
116
330
9F
100
AcDbEntity
  8
0
100
AcDbVertex
100
AcDb2dVertex
 10
0.77441
 20
0.07441
 30
0.0
  0
VERTEX
  5
117
330
9F
100
AcDbEntity
  8
0
100
AcDbVertex
100
AcDb2dVertex
 10
0.82559
 20
0.07441
 30
0.0
  0
VERTEX
  5
118
330
9F
100
AcDbEntity
  8
0
100
AcDbVertex
100
AcDb2dVertex
 10
0.82559
 20
0.12559
 30
0.0
  0
SEQEND
  5
145
330
9F
100
AcDbEntity
  8
0
  0
CIRCLE
  5
A0
330
17
100
AcDbEntity
  8
0
100
AcDbCircle
 10
1.19685
 20
0.1
 30
0.0
 40
0.02559
  0
CIRCLE
  5
A1
330
17
100
AcDbEntity
  8
0
100
AcDbCircle
 10
1.3937
 20
0.1
 30
0.0
 40
0.02559
  0
CIRCLE
  5
A2
330
17
100
AcDbEntity
  8
0
100
AcDbCircle
 10
1.7
 20
0.1
 30
0.0
 40
0.02559
  0
CIRCLE
  5
A3
330
17
100
AcDbEntity
  8
0
100
AcDbCircle
 10
2.6
 20
0.1
 30
0.0
 40
0.02559
  0
CIRCLE
  5
A4
330
17
100
AcDbEntity
  8
0
100
AcDbCircle
 10
4.4
 20
0.1
 30
0.0
 40
0.02559
  0
CIRCLE
  5
A5
330
17
100
AcDbEntity
  8
0
100
AcDbCircle
 10
5.3
 20
0.1
 30
0.0
 40
0.02559
  0
CIRCLE
  5
A6
330
17
100
AcDbEntity
  8
0
100
AcDbCircle
 10
2.79685
 20
0.1
 30
0.0
 40
0.02559
  0
CIRCLE
  5
A7
330
17
100
AcDbEntity
  8
0
100
AcDbCircle
 10
2.9937
 20
0.1
 30
0.0
 40
0.02559
  0
CIRCLE
  5
A8
330
17
100
AcDbEntity
  8
0
100
AcDbCircle
 10
3.19055
 20
0.1
 30
0.0
 40
0.02559
  0
CIRCLE
  5
A9
330
17
100
AcDbEntity
  8
0
100
AcDbCircle
 10
3.69685
 20
0.1
 30
0.0
 40
0.02559
  0
CIRCLE
  5
AA
330
17
100
AcDbEntity
  8
0
100
AcDbCircle
 10
3.8937
 20
0.1
 30
0.0
 40
0.02559
  0
CIRCLE
  5
AB
330
17
100
AcDbEntity
  8
0
100
AcDbCircle
 10
4.09055
 20
0.1
 30
0.0
 40
0.02559
  0
CIRCLE
  5
AC
330
17
100
AcDbEntity
  8
0
100
AcDbCircle
 10
1.89685
 20
0.1
 30
0.0
 40
0.02559
  0
CIRCLE
  5
AD
330
17
100
AcDbEntity
  8
0
100
AcDbCircle
 10
2.0937
 20
0.1
 30
0.0
 40
0.02559
  0
CIRCLE
  5
AE
330
17
100
AcDbEntity
  8
0
100
AcDbCircle
 10
2.29055
 20
0.1
 30
0.0
 40
0.02559
  0
CIRCLE
  5
AF
330
17
100
AcDbEntity
  8
0
100
AcDbCircle
 10
4.596850000000001
 20
0.1
 30
0.0
 40
0.02559
  0
CIRCLE
  5
B0
330
17
100
AcDbEntity
  8
0
100
AcDbCircle
 10
4.7937
 20
0.1
 30
0.0
 40
0.02559
  0
CIRCLE
  5
B1
330
17
100
AcDbEntity
  8
0
100
AcDbCircle
 10
4.990550000000001
 20
0.1
 30
0.0
 40
0.02559
  0
CIRCLE
  5
B2
330
17
100
AcDbEntity
  8
0
100
AcDbCircle
 10
5.49685
 20
0.1
 30
0.0
 40
0.02559
  0
CIRCLE
  5
B3
330
17
100
AcDbEntity
  8
0
100
AcDbCircle
 10
5.6937
 20
0.1
 30
0.0
 40
0.02559
  0
CIRCLE
  5
B4
330
17
100
AcDbEntity
  8
0
100
AcDbCircle
 10
5.89055
 20
0.1
 30
0.0
 40
0.02559
  0
POLYLINE
  5
B5
330
17
100
AcDbEntity
  8
0
100
AcDb2dPolyline
 66
     1
 10
0.0
 20
0.0
 30
0.0
 70
     1
  0
VERTEX
  5
119
330
B5
100
AcDbEntity
  8
0
100
AcDbVertex
100
AcDb2dVertex
 10
1.67441
 20
0.12559
 30
0.0
  0
VERTEX
  5
11A
330
B5
100
AcDbEntity
  8
0
100
AcDbVertex
100
AcDb2dVertex
 10
1.67441
 20
0.07441
 30
0.0
  0
VERTEX
  5
11B
330
B5
100
AcDbEntity
  8
0
100
AcDbVertex
100
AcDb2dVertex
 10
1.72559
 20
0.07441
 30
0.0
  0
VERTEX
  5
11C
330
B5
100
AcDbEntity
  8
0
100
AcDbVertex
100
AcDb2dVertex
 10
1.72559
 20
0.12559
 30
0.0
  0
SEQEND
  5
146
330
B5
100
AcDbEntity
  8
0
  0
POLYLINE
  5
B6
330
17
100
AcDbEntity
  8
0
100
AcDb2dPolyline
 66
     1
 10
0.0
 20
0.0
 30
0.0
 70
     1
  0
VERTEX
  5
11D
330
B6
100
AcDbEntity
  8
0
100
AcDbVertex
100
AcDb2dVertex
 10
2.57441
 20
0.12559
 30
0.0
  0
VERTEX
  5
11E
330
B6
100
AcDbEntity
  8
0
100
AcDbVertex
100
AcDb2dVertex
 10
2.57441
 20
0.07441
 30
0.0
  0
VERTEX
  5
11F
330
B6
100
AcDbEntity
  8
0
100
AcDbVertex
100
AcDb2dVertex
 10
2.62559
 20
0.07441
 30
0.0
  0
VERTEX
  5
120
330
B6
100
AcDbEntity
  8
0
100
AcDbVertex
100
AcDb2dVertex
 10
2.62559
 20
0.12559
 30
0.0
  0
SEQEND
  5
147
330
B6
100
AcDbEntity
  8
0
  0
POLYLINE
  5
B7
330
17
100
AcDbEntity
  8
0
100
AcDb2dPolyline
 66
     1
 10
0.0
 20
0.0
 30
0.0
 70
     1
  0
VERTEX
  5
121
330
B7
100
AcDbEntity
  8
0
100
AcDbVertex
100
AcDb2dVertex
 10
3.47441
 20
0.12559
 30
0.0
  0
VERTEX
  5
122
330
B7
100
AcDbEntity
  8
0
100
AcDbVertex
100
AcDb2dVertex
 10
3.47441
 20
0.07441
 30
0.0
  0
VERTEX
  5
123
330
B7
100
AcDbEntity
  8
0
100
AcDbVertex
100
AcDb2dVertex
 10
3.52559
 20
0.07441
 30
0.0
  0
VERTEX
  5
124
330
B7
100
AcDbEntity
  8
0
100
AcDbVertex
100
AcDb2dVertex
 10
3.52559
 20
0.12559
 30
0.0
  0
SEQEND
  5
148
330
B7
100
AcDbEntity
  8
0
  0
POLYLINE
  5
B8
330
17
100
AcDbEntity
  8
0
100
AcDb2dPolyline
 66
     1
 10
0.0
 20
0.0
 30
0.0
 70
     1
  0
VERTEX
  5
125
330
B8
100
AcDbEntity
  8
0
100
AcDbVertex
100
AcDb2dVertex
 10
4.37441
 20
0.12559
 30
0.0
  0
VERTEX
  5
126
330
B8
100
AcDbEntity
  8
0
100
AcDbVertex
100
AcDb2dVertex
 10
4.37441
 20
0.07441
 30
0.0
  0
VERTEX
  5
127
330
B8
100
AcDbEntity
  8
0
100
AcDbVertex
100
AcDb2dVertex
 10
4.42559
 20
0.07441
 30
0.0
  0
VERTEX
  5
128
330
B8
100
AcDbEntity
  8
0
100
AcDbVertex
100
AcDb2dVertex
 10
4.42559
 20
0.12559
 30
0.0
  0
SEQEND
  5
149
330
B8
100
AcDbEntity
  8
0
  0
POLYLINE
  5
B9
330
17
100
AcDbEntity
  8
0
100
AcDb2dPolyline
 66
     1
 10
0.0
 20
0.0
 30
0.0
 70
     1
  0
VERTEX
  5
129
330
B9
100
AcDbEntity
  8
0
100
AcDbVertex
100
AcDb2dVertex
 10
5.27441
 20
0.12559
 30
0.0
  0
VERTEX
  5
12A
330
B9
100
AcDbEntity
  8
0
100
AcDbVertex
100
AcDb2dVertex
 10
5.27441
 20
0.07441
 30
0.0
  0
VERTEX
  5
12B
330
B9
100
AcDbEntity
  8
0
100
AcDbVertex
100
AcDb2dVertex
 10
5.32559
 20
0.07441
 30
0.0
  0
VERTEX
  5
12C
330
B9
100
AcDbEntity
  8
0
100
AcDbVertex
100
AcDb2dVertex
 10
5.32559
 20
0.12559
 30
0.0
  0
SEQEND
  5
14A
330
B9
100
AcDbEntity
  8
0
  0
CIRCLE
  5
BA
330
17
100
AcDbEntity
  8
0
100
AcDbCircle
 10
3.5
 20
0.1
 30
0.0
 40
0.02559
  0
CIRCLE
  5
BB
330
17
100
AcDbEntity
  8
0
100
AcDbCircle
 10
0.307
 20
0.594
 30
0.0
 40
0.02
  0
CIRCLE
  5
BC
330
17
100
AcDbEntity
  8
0
100
AcDbCircle
 10
0.307
 20
0.692
 30
0.0
 40
0.02
  0
CIRCLE
  5
BD
330
17
100
AcDbEntity
  8
0
100
AcDbCircle
 10
0.385
 20
0.594
 30
0.0
 40
0.02
  0
CIRCLE
  5
BE
330
17
100
AcDbEntity
  8
0
100
AcDbCircle
 10
0.385
 20
0.692
 30
0.0
 40
0.02
  0
POLYLINE
  5
BF
330
17
100
AcDbEntity
  8
0
100
AcDb2dPolyline
 66
     1
 10
0.0
 20
0.0
 30
0.0
 70
     1
  0
VERTEX
  5
12D
330
BF
100
AcDbEntity
  8
0
100
AcDbVertex
100
AcDb2dVertex
 10
0.287
 20
0.614
 30
0.0
  0
VERTEX
  5
12E
330
BF
100
AcDbEntity
  8
0
100
AcDbVertex
100
AcDb2dVertex
 10
0.287
 20
0.574
 30
0.0
  0
VERTEX
  5
12F
330
BF
100
AcDbEntity
  8
0
100
AcDbVertex
100
AcDb2dVertex
 10
0.327
 20
0.574
 30
0.0
  0
VERTEX
  5
130
330
BF
100
AcDbEntity
  8
0
100
AcDbVertex
100
AcDb2dVertex
 10
0.327
 20
0.614
 30
0.0
  0
SEQEND
  5
14B
330
BF
100
AcDbEntity
  8
0
  0
CIRCLE
  5
C0
330
17
100
AcDbEntity
  8
0
100
AcDbCircle
 10
0.405
 20
0.145
 30
0.0
 40
0.02
  0
CIRCLE
  5
C1
330
17
100
AcDbEntity
  8
0
100
AcDbCircle
 10
0.505
 20
0.145
 30
0.0
 40
0.02
  0
CIRCLE
  5
C2
330
17
100
AcDbEntity
  8
0
100
AcDbCircle
 10
0.11
 20
0.145
 30
0.0
 40
0.02
  0
CIRCLE
  5
C3
330
17
100
AcDbEntity
  8
0
100
AcDbCircle
 10
0.21
 20
0.145
 30
0.0
 40
0.02
  0
POLYLINE
  5
C4
330
17
100
AcDbEntity
  8
0
100
AcDb2dPolyline
 66
     1
 10
0.0
 20
0.0
 30
0.0
 70
     1
  0
VERTEX
  5
131
330
C4
100
AcDbEntity
  8
0
100
AcDbVertex
100
AcDb2dVertex
 10
0.09
 20
0.165
 30
0.0
  0
VERTEX
  5
132
330
C4
100
AcDbEntity
  8
0
100
AcDbVertex
100
AcDb2dVertex
 10
0.09
 20
0.125
 30
0.0
  0
VERTEX
  5
133
330
C4
100
AcDbEntity
  8
0
100
AcDbVertex
100
AcDb2dVertex
 10
0.13
 20
0.125
 30
0.0
  0
VERTEX
  5
134
330
C4
100
AcDbEntity
  8
0
100
AcDbVertex
100
AcDb2dVertex
 10
0.13
 20
0.165
 30
0.0
  0
SEQEND
  5
14C
330
C4
100
AcDbEntity
  8
0
  0
POLYLINE
  5
C5
330
17
100
AcDbEntity
  8
0
100
AcDb2dPolyline
 66
     1
 10
0.0
 20
0.0
 30
0.0
 70
     1
  0
VERTEX
  5
135
330
C5
100
AcDbEntity
  8
0
100
AcDbVertex
100
AcDb2dVertex
 10
0.385
 20
0.165
 30
0.0
  0
VERTEX
  5
136
330
C5
100
AcDbEntity
  8
0
100
AcDbVertex
100
AcDb2dVertex
 10
0.385
 20
0.125
 30
0.0
  0
VERTEX
  5
137
330
C5
100
AcDbEntity
  8
0
100
AcDbVertex
100
AcDb2dVertex
 10
0.425
 20
0.125
 30
0.0
  0
VERTEX
  5
138
330
C5
100
AcDbEntity
  8
0
100
AcDbVertex
100
AcDb2dVertex
 10
0.425
 20
0.165
 30
0.0
  0
SEQEND
  5
14D
330
C5
100
AcDbEntity
  8
0
  0
CIRCLE
  5
C6
330
17
100
AcDbEntity
  8
0
  6
CONTINUOUS
 62
     7
100
AcDbCircle
 10
1.402000037
 20
2.1770000356
 30
0.0
 40
0.02
  0
CIRCLE
  5
C7
330
17
100
AcDbEntity
  8
0
  6
CONTINUOUS
 62
     7
100
AcDbCircle
 10
2.165000037
 20
2.1770000356
 30
0.0
 40
0.02
  0
CIRCLE
  5
C8
330
17
100
AcDbEntity
  8
0
  6
CONTINUOUS
 62
     7
100
AcDbCircle
 10
2.056000037
 20
2.1770000356
 30
0.0
 40
0.02
  0
CIRCLE
  5
C9
330
17
100
AcDbEntity
  8
0
  6
CONTINUOUS
 62
     7
100
AcDbCircle
 10
1.947000037
 20
2.1770000356
 30
0.0
 40
0.02
  0
CIRCLE
  5
CA
330
17
100
AcDbEntity
  8
0
  6
CONTINUOUS
 62
     7
100
AcDbCircle
 10
1.838000037
 20
2.1770000356
 30
0.0
 40
0.02
  0
CIRCLE
  5
CB
330
17
100
AcDbEntity
  8
0
  6
CONTINUOUS
 62
     7
100
AcDbCircle
 10
1.729000037
 20
2.1770000356
 30
0.0
 40
0.02
  0
CIRCLE
  5
CC
330
17
100
AcDbEntity
  8
0
  6
CONTINUOUS
 62
     7
100
AcDbCircle
 10
1.620000037
 20
2.1770000356
 30
0.0
 40
0.02
  0
CIRCLE
  5
CD
330
17
100
AcDbEntity
  8
0
  6
CONTINUOUS
 62
     7
100
AcDbCircle
 10
1.511000037
 20
2.1770000356
 30
0.0
 40
0.02
  0
CIRCLE
  5
CE
330
17
100
AcDbEntity
  8
0
  6
CONTINUOUS
 62
     7
100
AcDbCircle
 10
2.110500037
 20
2.2890000356
 30
0.0
 40
0.02
  0
CIRCLE
  5
CF
330
17
100
AcDbEntity
  8
0
  6
CONTINUOUS
 62
     7
100
AcDbCircle
 10
2.001500037
 20
2.2890000356
 30
0.0
 40
0.02
  0
CIRCLE
  5
D0
330
17
100
AcDbEntity
  8
0
  6
CONTINUOUS
 62
     7
100
AcDbCircle
 10
1.783500037
 20
2.2890000356
 30
0.0
 40
0.02
  0
CIRCLE
  5
D1
330
17
100
AcDbEntity
  8
0
  6
CONTINUOUS
 62
     7
100
AcDbCircle
 10
1.674500037
 20
2.2890000356
 30
0.0
 40
0.02
  0
CIRCLE
  5
D2
330
17
100
AcDbEntity
  8
0
  6
CONTINUOUS
 62
     7
100
AcDbCircle
 10
1.565500037
 20
2.2890000356
 30
0.0
 40
0.02
  0
CIRCLE
  5
D3
330
17
100
AcDbEntity
  8
0
  6
CONTINUOUS
 62
     7
100
AcDbCircle
 10
1.456500037
 20
2.2890000356
 30
0.0
 40
0.02
  0
CIRCLE
  5
D4
330
17
100
AcDbEntity
  8
0
  6
CONTINUOUS
 62
     7
100
AcDbCircle
 10
1.892500037
 20
2.2890000356
 30
0.0
 40
0.02
  0
CIRCLE
  5
D5
330
17
100
AcDbEntity
  8
0
  6
CONTINUOUS
 62
     7
100
AcDbCircle
 10
3.598000037
 20
2.1770000356
 30
0.0
 40
0.02
  0
CIRCLE
  5
D6
330
17
100
AcDbEntity
  8
0
  6
CONTINUOUS
 62
     7
100
AcDbCircle
 10
5.560000037
 20
2.1770000356
 30
0.0
 40
0.02
  0
CIRCLE
  5
D7
330
17
100
AcDbEntity
  8
0
  6
CONTINUOUS
 62
     7
100
AcDbCircle
 10
5.451000037
 20
2.1770000356
 30
0.0
 40
0.02
  0
CIRCLE
  5
D8
330
17
100
AcDbEntity
  8
0
  6
CONTINUOUS
 62
     7
100
AcDbCircle
 10
5.342000037
 20
2.1770000356
 30
0.0
 40
0.02
  0
CIRCLE
  5
D9
330
17
100
AcDbEntity
  8
0
  6
CONTINUOUS
 62
     7
100
AcDbCircle
 10
5.233000037
 20
2.1770000356
 30
0.0
 40
0.02
  0
CIRCLE
  5
DA
330
17
100
AcDbEntity
  8
0
  6
CONTINUOUS
 62
     7
100
AcDbCircle
 10
5.124000037
 20
2.1770000356
 30
0.0
 40
0.02
  0
CIRCLE
  5
DB
330
17
100
AcDbEntity
  8
0
  6
CONTINUOUS
 62
     7
100
AcDbCircle
 10
5.015000037
 20
2.1770000356
 30
0.0
 40
0.02
  0
CIRCLE
  5
DC
330
17
100
AcDbEntity
  8
0
  6
CONTINUOUS
 62
     7
100
AcDbCircle
 10
4.361000037
 20
2.1770000356
 30
0.0
 40
0.02
  0
CIRCLE
  5
DD
330
17
100
AcDbEntity
  8
0
  6
CONTINUOUS
 62
     7
100
AcDbCircle
 10
4.252000037
 20
2.1770000356
 30
0.0
 40
0.02
  0
CIRCLE
  5
DE
330
17
100
AcDbEntity
  8
0
  6
CONTINUOUS
 62
     7
100
AcDbCircle
 10
4.143000037
 20
2.1770000356
 30
0.0
 40
0.02
  0
CIRCLE
  5
DF
330
17
100
AcDbEntity
  8
0
  6
CONTINUOUS
 62
     7
100
AcDbCircle
 10
4.034000037
 20
2.1770000356
 30
0.0
 40
0.02
  0
CIRCLE
  5
E0
330
17
100
AcDbEntity
  8
0
  6
CONTINUOUS
 62
     7
100
AcDbCircle
 10
3.925000037
 20
2.1770000356
 30
0.0
 40
0.02
  0
CIRCLE
  5
E1
330
17
100
AcDbEntity
  8
0
  6
CONTINUOUS
 62
     7
100
AcDbCircle
 10
4.906000037
 20
2.1770000356
 30
0.0
 40
0.02
  0
CIRCLE
  5
E2
330
17
100
AcDbEntity
  8
0
  6
CONTINUOUS
 62
     7
100
AcDbCircle
 10
5.178500037000001
 20
2.2890000356
 30
0.0
 40
0.02
  0
CIRCLE
  5
E3
330
17
100
AcDbEntity
  8
0
  6
CONTINUOUS
 62
     7
100
AcDbCircle
 10
5.069500037000001
 20
2.2890000356
 30
0.0
 40
0.02
  0
CIRCLE
  5
E4
330
17
100
AcDbEntity
  8
0
  6
CONTINUOUS
 62
     7
100
AcDbCircle
 10
4.960500037000001
 20
2.2890000356
 30
0.0
 40
0.02
  0
CIRCLE
  5
E5
330
17
100
AcDbEntity
  8
0
  6
CONTINUOUS
 62
     7
100
AcDbCircle
 10
4.851500037000001
 20
2.2890000356
 30
0.0
 40
0.02
  0
CIRCLE
  5
E6
330
17
100
AcDbEntity
  8
0
  6
CONTINUOUS
 62
     7
100
AcDbCircle
 10
4.742500037000001
 20
2.2890000356
 30
0.0
 40
0.02
  0
CIRCLE
  5
E7
330
17
100
AcDbEntity
  8
0
  6
CONTINUOUS
 62
     7
100
AcDbCircle
 10
4.633500037000001
 20
2.2890000356
 30
0.0
 40
0.02
  0
CIRCLE
  5
E8
330
17
100
AcDbEntity
  8
0
  6
CONTINUOUS
 62
     7
100
AcDbCircle
 10
4.524500037000001
 20
2.2890000356
 30
0.0
 40
0.02
  0
CIRCLE
  5
E9
330
17
100
AcDbEntity
  8
0
  6
CONTINUOUS
 62
     7
100
AcDbCircle
 10
4.415500037000001
 20
2.2890000356
 30
0.0
 40
0.02
  0
CIRCLE
  5
EA
330
17
100
AcDbEntity
  8
0
  6
CONTINUOUS
 62
     7
100
AcDbCircle
 10
4.797000037
 20
2.1770000356
 30
0.0
 40
0.02
  0
CIRCLE
  5
EB
330
17
100
AcDbEntity
  8
0
  6
CONTINUOUS
 62
     7
100
AcDbCircle
 10
4.688000037
 20
2.1770000356
 30
0.0
 40
0.02
  0
CIRCLE
  5
EC
330
17
100
AcDbEntity
  8
0
  6
CONTINUOUS
 62
     7
100
AcDbCircle
 10
4.579000037
 20
2.1770000356
 30
0.0
 40
0.02
  0
CIRCLE
  5
ED
330
17
100
AcDbEntity
  8
0
  6
CONTINUOUS
 62
     7
100
AcDbCircle
 10
5.287500037000001
 20
2.2890000356
 30
0.0
 40
0.02
  0
CIRCLE
  5
EE
330
17
100
AcDbEntity
  8
0
  6
CONTINUOUS
 62
     7
100
AcDbCircle
 10
5.396500037000001
 20
2.2890000356
 30
0.0
 40
0.02
  0
CIRCLE
  5
EF
330
17
100
AcDbEntity
  8
0
  6
CONTINUOUS
 62
     7
100
AcDbCircle
 10
5.505500037000001
 20
2.2890000356
 30
0.0
 40
0.02
  0
CIRCLE
  5
F0
330
17
100
AcDbEntity
  8
0
  6
CONTINUOUS
 62
     7
100
AcDbCircle
 10
4.470000037
 20
2.1770000356
 30
0.0
 40
0.02
  0
CIRCLE
  5
F1
330
17
100
AcDbEntity
  8
0
  6
CONTINUOUS
 62
     7
100
AcDbCircle
 10
3.652500037
 20
2.2890000356
 30
0.0
 40
0.02
  0
CIRCLE
  5
F2
330
17
100
AcDbEntity
  8
0
  6
CONTINUOUS
 62
     7
100
AcDbCircle
 10
4.088500036999999
 20
2.2890000356
 30
0.0
 40
0.02
  0
CIRCLE
  5
F3
330
17
100
AcDbEntity
  8
0
  6
CONTINUOUS
 62
     7
100
AcDbCircle
 10
4.197500036999999
 20
2.2890000356
 30
0.0
 40
0.02
  0
CIRCLE
  5
F4
330
17
100
AcDbEntity
  8
0
  6
CONTINUOUS
 62
     7
100
AcDbCircle
 10
3.761500037
 20
2.2890000356
 30
0.0
 40
0.02
  0
CIRCLE
  5
F5
330
17
100
AcDbEntity
  8
0
  6
CONTINUOUS
 62
     7
100
AcDbCircle
 10
3.870500037
 20
2.2890000356
 30
0.0
 40
0.02
  0
CIRCLE
  5
F6
330
17
100
AcDbEntity
  8
0
  6
CONTINUOUS
 62
     7
100
AcDbCircle
 10
3.979500037
 20
2.2890000356
 30
0.0
 40
0.02
  0
CIRCLE
  5
F7
330
17
100
AcDbEntity
  8
0
  6
CONTINUOUS
 62
     7
100
AcDbCircle
 10
4.306500037000001
 20
2.2890000356
 30
0.0
 40
0.02
  0
CIRCLE
  5
F8
330
17
100
AcDbEntity
  8
0
  6
CONTINUOUS
 62
     7
100
AcDbCircle
 10
3.707000037
 20
2.1770000356
 30
0.0
 40
0.02
  0
CIRCLE
  5
F9
330
17
100
AcDbEntity
  8
0
  6
CONTINUOUS
 62
     7
100
AcDbCircle
 10
3.816000037
 20
2.1770000356
 30
0.0
 40
0.02
  0
CIRCLE
  5
FA
330
17
100
AcDbEntity
  8
0
100
AcDbCircle
 10
0.1
 20
1.5
 30
0.0
 40
0.02
  0
POLYLINE
  5
FB
330
17
100
AcDbEntity
  8
0
100
AcDb2dPolyline
 66
     1
 10
0.0
 20
0.0
 30
0.0
 70
     1
  0
VERTEX
  5
139
330
FB
100
AcDbEntity
  8
0
100
AcDbVertex
100
AcDb2dVertex
 10
0.08
 20
1.52
 30
0.0
  0
VERTEX
  5
13A
330
FB
100
AcDbEntity
  8
0
100
AcDbVertex
100
AcDb2dVertex
 10
0.08
 20
1.48
 30
0.0
  0
VERTEX
  5
13B
330
FB
100
AcDbEntity
  8
0
100
AcDbVertex
100
AcDb2dVertex
 10
0.12
 20
1.48
 30
0.0
  0
VERTEX
  5
13C
330
FB
100
AcDbEntity
  8
0
100
AcDbVertex
100
AcDb2dVertex
 10
0.12
 20
1.52
 30
0.0
  0
SEQEND
  5
14E
330
FB
100
AcDbEntity
  8
0
  0
CIRCLE
  5
FC
330
17
100
AcDbEntity
  8
0
100
AcDbCircle
 10
0.1
 20
1.4
 30
0.0
 40
0.02
  0
CIRCLE
  5
FD
330
17
100
AcDbEntity
  8
0
100
AcDbCircle
 10
0.1
 20
1.3
 30
0.0
 40
0.02
  0
CIRCLE
  5
FE
330
17
100
AcDbEntity
  8
0
100
AcDbCircle
 10
5.1
 20
0.5
 30
0.0
 40
0.02559
  0
POLYLINE
  5
FF
330
17
100
AcDbEntity
  8
0
100
AcDb2dPolyline
 66
     1
 10
0.0
 20
0.0
 30
0.0
 70
     1
  0
VERTEX
  5
13D
330
FF
100
AcDbEntity
  8
0
100
AcDbVertex
100
AcDb2dVertex
 10
5.074409999999999
 20
0.52559
 30
0.0
  0
VERTEX
  5
13E
330
FF
100
AcDbEntity
  8
0
100
AcDbVertex
100
AcDb2dVertex
 10
5.074409999999999
 20
0.47441
 30
0.0
  0
VERTEX
  5
13F
330
FF
100
AcDbEntity
  8
0
100
AcDbVertex
100
AcDb2dVertex
 10
5.12559
 20
0.47441
 30
0.0
  0
VERTEX
  5
140
330
FF
100
AcDbEntity
  8
0
100
AcDbVertex
100
AcDb2dVertex
 10
5.12559
 20
0.52559
 30
0.0
  0
SEQEND
  5
14F
330
FF
100
AcDbEntity
  8
0
  0
CIRCLE
  5
100
330
17
100
AcDbEntity
  8
0
100
AcDbCircle
 10
5.199999999999999
 20
0.5
 30
0.0
 40
0.02559
  0
CIRCLE
  5
101
330
17
100
AcDbEntity
  8
0
100
AcDbCircle
 10
5.3
 20
0.5
 30
0.0
 40
0.02559
  0
CIRCLE
  5
102
330
17
100
AcDbEntity
  8
0
100
AcDbCircle
 10
5.399999999999999
 20
0.5000000000000001
 30
0.0
 40
0.02559
  0
CIRCLE
  5
103
330
17
100
AcDbEntity
  8
0
100
AcDbCircle
 10
5.5
 20
0.5000000000000001
 30
0.0
 40
0.02559
  0
CIRCLE
  5
104
330
17
100
AcDbEntity
  8
0
100
AcDbCircle
 10
5.1
 20
0.6
 30
0.0
 40
0.02559
  0
CIRCLE
  5
105
330
17
100
AcDbEntity
  8
0
100
AcDbCircle
 10
5.199999999999999
 20
0.6000000000000001
 30
0.0
 40
0.02559
  0
CIRCLE
  5
106
330
17
100
AcDbEntity
  8
0
100
AcDbCircle
 10
5.3
 20
0.6000000000000001
 30
0.0
 40
0.02559
  0
CIRCLE
  5
107
330
17
100
AcDbEntity
  8
0
100
AcDbCircle
 10
5.399999999999999
 20
0.6000000000000001
 30
0.0
 40
0.02559
  0
CIRCLE
  5
108
330
17
100
AcDbEntity
  8
0
100
AcDbCircle
 10
5.5
 20
0.6000000000000001
 30
0.0
 40
0.02559
  0
CIRCLE
  5
109
330
17
100
AcDbEntity
  8
0
100
AcDbCircle
 10
5.824999999999999
 20
0.7
 30
0.0
 40
0.02559
  0
POLYLINE
  5
10A
330
17
100
AcDbEntity
  8
0
100
AcDb2dPolyline
 66
     1
 10
0.0
 20
0.0
 30
0.0
 70
     1
  0
VERTEX
  5
141
330
10A
100
AcDbEntity
  8
0
100
AcDbVertex
100
AcDb2dVertex
 10
5.799409999999999
 20
0.72559
 30
0.0
  0
VERTEX
  5
142
330
10A
100
AcDbEntity
  8
0
100
AcDbVertex
100
AcDb2dVertex
 10
5.799409999999999
 20
0.67441
 30
0.0
  0
VERTEX
  5
143
330
10A
100
AcDbEntity
  8
0
100
AcDbVertex
100
AcDb2dVertex
 10
5.85059
 20
0.67441
 30
0.0
  0
VERTEX
  5
144
330
10A
100
AcDbEntity
  8
0
100
AcDbVertex
100
AcDb2dVertex
 10
5.85059
 20
0.72559
 30
0.0
  0
SEQEND
  5
150
330
10A
100
AcDbEntity
  8
0
  0
CIRCLE
  5
10B
330
17
100
AcDbEntity
  8
0
100
AcDbCircle
 10
5.924999999999999
 20
0.7
 30
0.0
 40
0.02559
  0
LINE
  5
10C
330
17
100
AcDbEntity
  8
0
100
AcDbLine
 10
1.422000037
 20
2.1570000356
 30
0.0
 11
1.422000037
 21
2.1970000356
 31
0.0
  0
LINE
  5
10D
330
17
100
AcDbEntity
  8
0
100
AcDbLine
 10
1.382000037
 20
2.1970000356
 30
0.0
 11
1.422000037
 21
2.1970000356
 31
0.0
  0
LINE
  5
10E
330
17
100
AcDbEntity
  8
0
100
AcDbLine
 10
1.382000037
 20
2.1570000356
 30
0.0
 11
1.382000037
 21
2.1970000356
 31
0.0
  0
LINE
  5
10F
330
17
100
AcDbEntity
  8
0
100
AcDbLine
 10
1.382000037
 20
2.1570000356
 30
0.0
 11
1.422000037
 21
2.1570000356
 31
0.0
  0
LINE
  5
110
330
17
100
AcDbEntity
  8
0
100
AcDbLine
 10
3.618000037
 20
2.1570000356
 30
0.0
 11
3.618000037
 21
2.1970000356
 31
0.0
  0
LINE
  5
111
330
17
100
AcDbEntity
  8
0
100
AcDbLine
 10
3.578000037
 20
2.1970000356
 30
0.0
 11
3.618000037
 21
2.1970000356
 31
0.0
  0
LINE
  5
112
330
17
100
AcDbEntity
  8
0
100
AcDbLine
 10
3.578000037
 20
2.1570000356
 30
0.0
 11
3.578000037
 21
2.1970000356
 31
0.0
  0
LINE
  5
113
330
17
100
AcDbEntity
  8
0
100
AcDbLine
 10
3.578000037
 20
2.1570000356
 30
0.0
 11
3.618000037
 21
2.1570000356
 31
0.0
  0
ENDSEC
  0
SECTION
  2
OBJECTS
  0
DICTIONARY
  5
7
330
0
100
AcDbDictionary
  3
ACAD_GROUP
350
23
  3
ACAD_MLINESTYLE
350
15
  3
ACAD_SCALELIST
350
2A
  3
DWGPROPS
350
114
1001
ACAD
1000
TREAT_AS_HARD
1070
     0
  0
DICTIONARY
  5
3
330
2
100
AcDbDictionary
  3
ACAD_LAYERSTATES
360
4
1001
ACAD
1000
TREAT_AS_HARD
1070
     1
  0
DICTIONARY
  5
23
102
{ACAD_REACTORS
330
7
102
}
330
7
100
AcDbDictionary
1001
ACAD
1000
TREAT_AS_HARD
1070
     0
  0
DICTIONARY
  5
15
102
{ACAD_REACTORS
330
7
102
}
330
7
100
AcDbDictionary
  3
STANDARD
350
14
1001
ACAD
1000
TREAT_AS_HARD
1070
     0
  0
DICTIONARY
  5
2A
102
{ACAD_REACTORS
330
7
102
}
330
7
100
AcDbDictionary
1001
ACAD
1000
TREAT_AS_HARD
1070
     0
  0
XRECORD
  5
114
102
{ACAD_REACTORS
330
7
102
}
330
7
100
AcDbXrecord
  1
DWGPROPS COOKIE
  2

  3

  4

  6

  7

  8
Tim
  9

300
=
301
=
302
=
303
=
304
=
305
=
306
=
307
=
308
=
309
=
 40
0.0
 41
2456052.26830331
 42
2458514.22110169
  1

 90
        0
  0
DICTIONARY
  5
4
102
{ACAD_REACTORS
330
3
102
}
330
3
100
AcDbDictionary
1001
ACAD
1000
TREAT_AS_HARD
1070
     0
  0
MLINESTYLE
  5
14
102
{ACAD_REACTORS
330
15
102
}
330
15
100
AcDbMlineStyle
  2
STANDARD
 70
     0
  3

 62
   256
 51
90.0
 52
90.0
 71
     2
 49
0.5
 62
   256
  6
BYLAYER
 49
-0.5
 62
   256
  6
BYLAYER
  0
ENDSEC
  0
EOF
